Cuidado (Acordes)

Forró do Muído

Subida por ivan

Compartir


Imprimir FAQ
+A
-A

Texto

Desplazamiento

Transportador

Color de Fondo

Archivos

-A
+A
(solo inicial 2x)

E|---------------------------------------12-10----12-10----12-10----12-----|
B|----13-12-11----------13-12----10---10-------13------13------13----13----|
G|--10----------12~-10-12-------12-----------------------------------------|
D|-------------------------------------------------------------------------|   
A|-------------------------------------------------------------------------|
E|-------------------------------------------------------------------------|

B                      F#                     C#m
Sei que não foi coincidência encontrar-me contigo

     E                   B
Talvez tudo isso é o destino
            F#                   C#m
Eu quero dormir de novo em teu peito
      E                    B
E depois acordar com teus beijos
              F#           C#m
Teu sexto sentido sonha comigo
           E               B
Sei que logo estaremos unidos
                 F#               C#m
Esse sorriso travesso que vive comigo
          E                     B
Sei que pronto estarei em seu caminho
 G#m               F#
Saiba que estou colada em tuas mãos
E         F#           G#m
Peço que não me deixe cair
        F#
Saiba que eu estou...
E                F#
Colada em tuas mãos
B           F#                         C#m
Te envio poemas que escrevi com minha letra
             E           B
Te envio mensagens às 4:40m
              F#                 C#m
Te envio as fotos jantando em Veneza
              E              B
E quando estivemos por Fortaleza
                  F#                 C#m
E assim que me recordo que tenho presente
          E                      B
Meu coração esta colado em tuas mãos
      F#
Cuidado...
      C#m
Cuidado...
            E                      B
O meu coração esta colado em tuas mãos.
      F#
Cuidado...
      C#m
Cuidado...
            E                      B
O meu coração esta colado em tuas mãos.

(intro 2x) B F# C#m E

(repete tudo)

B                 F#                 C#m
Não perderei as esperanças de falar contigo
        E                      B
Não importam o que diga o destino
              F#                  C#m
Eu quero pra sempre teu cheiro comigo
     E                G#m
E viver um destino feliz

(solo final)

E|--------------------------------------12-10----12-10----12-13-12--------|
B|----13-12-11----------13-12----10---10-------13------13----------13-----|
G|--10----------12~-10-12-------12----------------------------------------|
D|------------------------------------------------------------------------|
A|------------------------------------------------------------------------|
E|------------------------------------------------------------------------|

HERRAMIENTAS ACORDESWEB:


LETRA DE LA CANCIÓN:

Ver la letra sola (sin acordes)

OTRAS VERSIONES DE LA MISMA CANCIÓN:

Ver. 2

DESCARGAR PDF / IMPRIMIR CANCIÓN



ACORDES PARA GUITARRA

PIANO UKELELE
B
F#
C#m
E
G#m


TOP 20: Las más tocadas de Forró do Muído


Acordes

Cerrar
B
F#
C#m
E
G#m

01.05

x

174