Ritual
Fractalia
Acordes

Subida por fxpiquer


Más Versiones
Ver. 2 Ver. 3

Cambiar Cifrado
Americano Latino

Cambiar Tonalidad
-1 +1

Partir Pantalla Imprimir FAQ

+A
-A


Ver solo la LETRA
A.S.M.L.
[email protected]
[email protected]

(intro)(corus)

e---------------------------------------------
b--0---0----0----0----0-----------------------
g-----------------------0---------------------
d-2-2-2--2-2--2-2--2-2------------------------
a---------------------------------------------
e---------------------------------------------

e---------------------------------------------
b--0---0----0----0----0-----------------------
g-----------------------0---------------------
d-3-3-3--3-3--3-3--3-3------------------------
a---------------------------------------------
e---------------------------------------------


arrastro...

e---------------------------------------------
b--1---1---1---1---1--------------------------
g---2---2---2---2---2-------------------------
d----2---2---2---2---2------------------------
a-0-------------------------------------------
e---------------------------------------------

MI cuerpo...

e---------------------------------------------
b---1---1---1---1---1-------------------------
g----2---2---2---2---2------------------------
d-----3---3---3---3---3-----------------------
a---------------------------------------------
e-1-------------------------------------------





e---------------------------------------------
b--0---0----0----0----0-----------------------
g-----------------------0---------------------
d-2-2-2--2-2--2-2--2-2------------------------
a---------------------------------------------
e---------------------------------------------

e---------------------------------------------
b--0---0----0----0----0-----------------------
g-----------------------0---------------------
d-3-3-3--3-3--3-3--3-3------------------------
a---------------------------------------------
e---------------------------------------------



(quintas)(DISTOR)

F F# G F# F F# G F#
Ocultas miradas, entierran mi corazón
F F# G F# F F# G
Matando delirios, rechazas ya mi bendición


(CORUS)
e---------------------------------------------
b--1---1---1---1---1--------------------------
g---2---2---2---2---2-------------------------
d----2---2---2---2---2------------------------
a-0-------------------------------------------
e---------------------------------------------

e---------------------------------------------
b---1---1-------------------------------------
g----2---2------------------------------------
d-----3---3-----------------------------------
a---------------------------------------------
e-1-------------------------------------------

e---------------------------------------------
b----0---0------------------------------------
g---0---0-0-----------------------------------
d--2---2---2----------------------------------
a---------------------------------------------
e---------------------------------------------


(QUINTAS)(DISTOR)

E G
Alaridos, no los puedo oír
F E
Gritos de dolor y muerte junto a mí


ACABA EN
(CORUS)

e---------------------------------------------
b--1---1---1---1---1--------------------------
g---2---2---2---2---2-------------------------
d----2---2---2---2---2------------------------
a-0-------------------------------------------
e---------------------------------------------


LETRA DE FRACTALIA

Arrastro, mi cuerpo, en el fondo del mar
Encuentro tu rostro, perdido me has dejado aquí
La noche eterna, tu cuerpo se ha ido ya
Ocultas miradas, entierran mi corazón
Matando delirios, rechazas ya mi bendición
Alaridos, no los puedo oír
Gritos de dolor y muerte junto a mí
Entregando el ritual de tu perdón
Has marcado el final de tu prisión
Encuentro tu rostro, perdido me has dejado aquí
La noche eterna, tu cuerpo se ha ido ya
Ocultas miradas, entierran mi corazón
Matando delirios, rechazas ya mi bendición
Alaridos, no los puedo oír
Gritos de dolor y muerte junto a mí

A.S.M.L.
[email protected]
[email protected]


ACORDES PARA GUITARRA

PIANO UKELELE
E
F
F#
G
E


COMENTARIOS

Aún no hay comentarios,

¡escribe el primero!

Escribe una pregunta, duda o comentario sobre esta canción, te responderemos a la brevedad.

Las más tocadas de Fractalia

Toca una Canción al Azar de Fractalia
E
F
F#
G
E