Volar
Frankie J
Acordes

Subida por Christian
Álbum: Un nuevo día ( 2006)


Más Versiones
Ver. 2 Ver. 3

Cambiar Cifrado
Americano Latino

Cambiar Tonalidad
-1 +1

Partir Pantalla Imprimir FAQ

+A
-A


Ver solo la LETRA
q onda, ps sta rola m la pidio un compa, y ps aki c las mando
sta completa, el punteo q les pongo es el q lleva al inicio
solo cheken los tiempos, saludos ami compa
"TRILLIZOS LOPEZ RODRIGUEZ", pero la rola c la dedico a

"KARINA ZARCO JIMENEZ"

"Quisiera volar (quisiera volar)
para prenderme de tus besos y llenarme de tu amor"

es mi novia y la kiero muxooo, yc aundo no sta conmigo ps
kisiera volr para ir ocn ella, (ay q romantico no jajaja)

bueno banda, sta s todo spero le ayan, c cuidan ciao,
cheken donde va el riff, q es en el coro





INTRO:

E---------2----0---------2-------------------2----------
A--0------2--2----0------2-------------0-----2-2-2h4-4-2
D---------4--------------4------4------------4----------
G------1--4-----------1--4----4-----4--------4----------
B--0------4-------0------4--5-----4----0---1-4----------
e----0----2---------0----2---------------0---2----------

Cm
E--0------2--0------------
A--0------2---------------
D--2------4---------------
G--2----1-4-------1-------
B--0------4------0---0----
e--0--0---2-----0---0-----

Cm A B
Tanta desesperación, habita en mi interior
Cm
mientras trato de olvidar que estoy tan lejos hoy de ti

A B
Tu mensaje en mi buzón, que me habla de tu amor
Cm A
es lo único en el mundo que me hace sonreír
Cm A
y al ver tu foto me ayuda a sobrevivir ( a sobrevivir)
B
esta soledaaaaaaaaaadddddddddd

Cm A
Quisiera volar (quisiera volar)
E B
para prenderme de tus besos y llenarme de tu amor
Cm A
Quisiera volar (quisiera volar)
E B
no aguanto este fuego que me quema de pasión
Cm
Quisiera volar

Puente: Cm A B Cm




Cm A
No me quiero imaginar
B
ni un momento más así
Cm
necesitándote añorándote babyyyyyyyyy


Tu mensaje..................



riff
D----------------------
G-------------7h8-9----
B-------8h9-8----------
e-6h8-6----------------



Final

E--4---------------4----
A--4---------------4----
D--6---------------6----
G--6------6-----6--6----
B--5----5-----5----5----
e--4--4-----4------4----


ACORDES PARA GUITARRA

PIANO UKELELE
Cm
A
B
E


COMENTARIOS

Aún no hay comentarios,

¡escribe el primero!

Escribe una pregunta, duda o comentario sobre esta canción, te responderemos a la brevedad.

Las más tocadas de Frankie J

Toca una Canción al Azar de Frankie J
Cm
A
B
E