Música al azar
Fratta
Acordes

Subida por Zeknew


Más Versiones
Ver. 2

Cambiar Cifrado
Americano Latino

Cambiar Tonalidad
-1 +1

Partir Pantalla Imprimir FAQ

+A
-A


Ver solo la LETRA
Intro
G|----|------------------------------|---6--4---------6--4------|
D|----|----4--2-----------4--2-------|-----6—6-4/6------6-6-4/6-|
A|—---|------4--4-2-4-------4--4-2-4-|-4------------------------|
E|----|-2--------------2-------------|--------------------------|
Verso
G|------------------------------|-----------------------------------|
D|----4--2-----------4--2-------|---11---9—-----------11---9--------|
A|------4--4-2-4-------4--4-2-4-|------11-11-9/11--------11-11-9/11-|
E|-2--------------2-------------|-9---------------------------------|

Puente
G|-----|-----|-----|
D|-----|-----|-----|
A|—----|--2--|--4--|
E|--5--|-----|-----|

Verso
G|------------------------------|-----------------------------------|
D|----4--2-----------4--2-------|---11---9—-----------11---9--------|
A|------4--4-2-4-------4--4-2-4-|------11-11-9/11--------11-11-9/11-|
E|-2--------------2-------------|--9---------------------------------|

Puente
G|-----|-----|-----|-----|-----|-----|---------4/6/4--|
D|-----|-----|-----|-----|-----|-----|-----4/6--------|
A|—----|--2--|--4--|--2--|--0--|--2--|--4-------------|
E|--5--|-----|-----|-----|-----|-----|----------------|

G|------------------------------|---6--4---------6--4-------|-------|
D|----4--2-----------4--2-------|-----6—6-4/6------6-6-4/6--|-------|
A|------4--4-2-4-------4--4-2-4-|-4-------------------------|---2-4-|
E|-2--------------2-------------|---------------------------|-5-----|


ACORDES PARA GUITARRA

PIANO UKELELE


COMENTARIOS

Aún no hay comentarios,

¡escribe el primero!

Escribe una pregunta, duda o comentario sobre esta canción, te responderemos a la brevedad.

Las más tocadas de Fratta

Toca una Canción al Azar de Fratta