Días Grandes
Fredi Leis
Acordes

Subida por martha


Más Versiones
Ver. 2

Cambiar Cifrado
Americano Latino

Cambiar Tonalidad
-1 +1

Partir Pantalla Imprimir FAQ

+A
-A


Ver solo la LETRA
Capo en el 1er traste.

Basicamente esta es la base de toda la cancion

G D/G G D/G

1||--3----3----2---2---|--3----3----2---2----|--
2||--3----3----3---3---|--3----3----3---3----|--
3||----0----0----0---0-|----0----0----0---0--|--
4||-------0----0---0---|-------0----0---0----|--
5||--------------------|---------------------|--
6||--3-----------------|--3------------------|--



G D/G G D/G G
Mira alrededor,
D/G G D/G
no hay ni un sitio libre para ti.
G D/G C
Ya está todo reservado y ¿qué más da...?
D G - D/G
Yo te llevo dentro.

G D/G G
Sé que eres capaz
D/G G D/G G
de cambiar las normas de cualquier normalidad
D/G C D G - D/G
y en realidad tu punto fuerte hoy es mi punto débil.


G D/G Am
Te juro que es verdad,
Bm
que todo lo que dije lo pensaba.
G
Todo menos lo de terminaar
G7 C Cm
con un balazo y un abrazo por la espalda,
C D
solo y sin mi banda.
G - D/G
Solo contra ti.

#INRTRO
G - D/G G - D/G

D/G G
Miro alrededor,
D/G G D/G
tiro las bengalas desde el fondo norte
C D G - D/G
y llegan los aviones al rescate de los días grandes.


G D/G Am
Te juro que es verdad,
Bm
que este miedo a mí me sabe a poco
G G7
y voy a terminaar
C Cm
Voy a terminaar con esto.
G
Voy a terminaar.
G7
Yo voy a terminar.
C Cm
Voy a terminar con esto
C
antes o después
D G D/G
antes o despues y contigo al lado

G
Noo, no, no, no - no
C
no me trates asií,
D
que me engancho rápido.

G
Noo, no, no, no - no
C
no me toques asií,
D
con el corazón tintado.


G
Noo, no, no, no - no
C
no me trates asií,
D G
que me engancho rápido.




Estos son los acordes que yo uso
espero les funcione.

G

1||-|-|4|-|-|-|-|-----
2||-|-|3|-|-|-|-|-----
3||-|-|-|-|-|-|-|-----
4||-|-|-|-|-|-|-|-----
5||-|1|-|-|-|-|-|-----
6||-|-|2|-|-|-|-|-----


D/G

1||-|1|-|-|-|-|-|-----
2||-|-|3|-|-|-|-|-----
3||-|-|-|-|-|-|-|-----
4||-|-|-|-|-|-|-|-----
5||-|-|-|-|-|-|-|-----
6||-|-|2|-|-|-|-|-----


ACORDES PARA GUITARRA

PIANO UKELELE
G
D/G
C
D
Am
Bm
G7
Cm


COMENTARIOS

Aún no hay comentarios,

¡escribe el primero!

Escribe una pregunta, duda o comentario sobre esta canción, te responderemos a la brevedad.

Las más tocadas de Fredi Leis

Toca una Canción al Azar de Fredi Leis
G
D/G
C
D
Am
Bm
G7
Cm