Runaway Return
Fugazi
Acordes

Subida por Reyesgalicia
Álbum: Steady Diet of Nothing ( 1991)



Cambiar Cifrado
Americano Latino

Cambiar Tonalidad
-1 +1

Partir Pantalla Imprimir FAQ

+A
-A


Ver solo la LETRA
=========================================================================
=========================================================================

Tabbed by: John G.
E-mail: *

Intro (0:05):

Guitar
G|------|-----------|
D|------|-----------|
A|------|-------00--|
E|------|--00022----|

Verse (0:07):
x7
G|---------------------------|
D|---------------------------|
A|--222-------222--------00--|
E|--------222-------00022----|

ChorusA (0:57):
x7
G|-----------------------|
D|-----------------------|
A|--2------------554433--|
E|------2---0---0--------|

Pre-Verse (1:22):

G|-----------------------|
D|-----------------------|
A|--2----------------00--|
E|------2---0---00022----|

Verse (1:26) x6

ChorusA (2:09) x3

ChorusB (2:20):
G|----------------------|
D|----------------------|
A|--2--------------5-4--|
E|------2---0---000-----|

ChorusA (2:23) x3

ChorusC (2:34):

G|-------------------------|
D|-------------------------|
A|--2-------------554442~--|
E|-----2---0---000---------|

No Guitar/Drums (2:39):

G|-------------------|
D|-------------------|
A|---2>------2>------|
E|-------0>------0>--|

Verse (3:14) x4

Break (3:42)

End (3:54):

G|-----------|
D|-----------|
A|-------00--|
E|--00022----|

=========================================================================

> = Play multiple times

=========================================================================

Notes:


=========================================================================

ACORDES PARA GUITARRA

PIANO UKELELE


COMENTARIOS

Aún no hay comentarios,

¡escribe el primero!

Escribe una pregunta, duda o comentario sobre esta canción, te responderemos a la brevedad.

Las más tocadas de Fugazi

Toca una Canción al Azar de Fugazi