Target
Fugazi
Acordes

Subida por Rosanema
Álbum: Red Medicine ( 1995)



Cambiar Cifrado
Americano Latino

Cambiar Tonalidad
-1 +1

Partir Pantalla Imprimir FAQ

+A
-A


Ver solo la LETRA


From: "Robert Fernandez"
Date: Wed, 06 May 1998 20:28:50 PDT

Album : Red Medicine

Transcribed by : Robert Fernandez (*)
9:47 PM 06/05/98

intro (bass/guitar):

e-----------------------------|
B-----------------------------|
G-----------------------------| (3 times)
D--2~5-4-2-4------------------|
A----------2-0---2~5-4-2-4----|
E--------------------------0--|


(about 15 times)
e-----------------------------0-0-...-0-0----|
B-----------------------------0-0-...-0-0----|
G-----------------------------4-4-...-4-4~~9-|
D--2~5-4-2-4------------------4-4-...-4-4~~9-|
A----------2-0---2~5-4-2-4----2-2-...-2-2~~7-|
E--------------------------0--0-0-----0-0--0-|


verse riff :

. h~p ~p
e---|-------------------------------|
B---|-------------------------------|
G-9-|-9-10-9------------------------| (3 times)
D-9-|----------8---9--------8-9-----|
A-7-|----------------10-11------7---|
E---|---------------------------0---|



h~p ~p
e-----------------------|
B-----------------------|
G--9-10-9---------------|
D---------8-9-------8-9-|
A-------------10-11-----|
E-----------------------|



"its cold outside..."
E B
e--------------------|----7-7-7-7-7-7-7---------------|
B--9-9-9-x-9-9-9-x---|----7-7-7-7-7-7-7---------------| (back to
G--9-9-9-x-9-9-9-x---|----8-8-8-8-8-8-8----- riff 2--|a
D--9-9-9-x-9-9-9-x---|----9-9-9-9-9-9-9~~14-----------| or riff
A--------------------|--0-9-9-x-x-x-9-9~~14- 2-------|c)
E--------------------|----7-7-x-x-x-7-7~~12-----------|
(repeat during verse)|
|


pre-chorus: (chords)

"forcing silence sucking sound..."
(B--E5--B--E5)

"force into this conversation..."
B E5 ~h~p~h~p~h
e---7-7-7-7--|----7-7-7-7-7-7-7-7-7-|
B---7-7-7-7--|----7-7-7-7-7-7-7-7-7-|
G---8-8-8-8--|----9-7-9-7-9-7-9-9-9-| (once then play
D-9----------|----9-7-9-7-9-7-9-9-9-| first measure)
A-9----------|----7-7-7-7-7-7-7-7-7-|
E-7----------|----7-7-7-7-7-7-7-7-7-|


chorus : return to riff 1-a and 1-b

final chorus : "you don't need a reservation...."


ACORDES PARA GUITARRA

PIANO UKELELE


COMENTARIOS

Aún no hay comentarios,

¡escribe el primero!

Escribe una pregunta, duda o comentario sobre esta canción, te responderemos a la brevedad.

Las más tocadas de Fugazi

Toca una Canción al Azar de Fugazi