Falling Awake
Gary Jules
Acordes

Subida por Belutorello
Álbum: Gary Jules ( 2006)


Más Versiones
Ver. 2 Ver. 3 Ver. 4 Ver. 5 Ver. 6

Cambiar Cifrado
Americano Latino

Cambiar Tonalidad
-1 +1

Partir Pantalla Imprimir FAQ

+A
-A


Ver solo la LETRA
Tabbed by Tyler "Cptspoofy"

Tuning : Standard

Capo 5th Fret

Intro
C
e:--------------------|
B:--------------------|
G:--------0--0-----0--| x4
D:-----2--------2-----|
A:--3-----------------|
E:--------------------|

Verse/Chorus Play Each Chord Twice !Chords correspond to the capo!

C Em Am C7
e:--------------------|-------------------|--------------------|---------------------|
B:--------------------|-------------------|--------------------|---------------------|
G:--------0--0-----0--|-------0--0-----0--|--------2--2-----2--|--------0--0------0--|
D:-----2--------2-----|-----2-------2-----|-----2--------2-----|-----3--------3------|
A:--3-----------------|--2----------------|--0-----------------|---------------------|
E:--------------------|-------------------|--------------------|--3------------------|

Play this until the end of the song, but for the last verse, just strum the cords.

Sometimes he replaces the note on the d string for a rest to mix it up a bit.

ACORDES PARA GUITARRA

PIANO UKELELE


COMENTARIOS

Aún no hay comentarios,

¡escribe el primero!

Escribe una pregunta, duda o comentario sobre esta canción, te responderemos a la brevedad.

Las más tocadas de Gary Jules

Toca una Canción al Azar de Gary Jules