Compartir


Cambiar Cifrado
Americano Latino

Cambiar Tonalidad
-1 +1
Imprimir FAQ
+A
-A

Texto

Desplazamiento

Transportador

Color de Fondo

Archivos

TONALIDAD, TAMAÑO, CIFRADO, SCROL.

Nos renovamos: Ahora puedes cambiar TODO haciendo clic en ICONO de la Guitarra () que aparece en la parte inferior de esta página.


LETRA CON ACORDES



Date: Fri, 26 Dec 1997 11:21:50 -0600
From: Nicholas Sonderup 
Subject: g/golden_smog/*

(Tweedy-Louris)

transcribed and submitted by Nick Sonderup
(*)

Well, here is a great little tune off of "Down by the Old Mainstream",
probably one of the best records released that year.  The whole song
pretty much consists of a few different little riffs, and then a few
chords for the chorus.  Have fun with it and improvise if you want.

Intro
--------------------------------3---3---3---3---3---3---3-|
--3---3---3---3---3---3---3-3-0h1-0h1-0h1-0h1-0h1-0h1-0h1-|
G 0h2-0h2-0h2-0h2-0h2-0h2-0h2-0-----------------------------|
----------------------------------------------------------|
----------------------------------------------------------|
----------------------------------------------------------|

E ---3-
B ---0-
G -----
D -----
A -----
E -----

Verse

 Pattern #1
---------------------------------------------------------|
---------------------------------------------------------|
-------------------------------0h2-0---------------------|
---------------------------0h2-------2-------------------|
-----0h2-----0h2-----0h2-2-------------------------------|
-3-3-----3-3-----3-3-------------------------------------|

 Pattern #2
---------------------------------------------------------|
---------------------------------------------------------|
------------------------------0-2-0----------------------|
-----0h2-----0h2-----0h2--0h2----------------------------|
---------------------------------------------------------|
-0-0-----0-0-----0-0-------------------------------------|


Pattern #1                  Pattern #1
Let's go down, together, 3 a.m. tomorrow night

Pattern #2
I'll take you, over anything

Pattern #1

P#1                     P#1
Let's go out together, broad daylight, in the street

P#2
I'll take you, anywhere

P#1

Chorus

Am         C            F
Your music fills my car
D                                  G
And your voice breaks every time
Bm      Am                                     D                                   Intro
I'm still wonderin', if I know who you are,  I hang on every line

P#1

P#1                         P#1
Let's go down, together, down by the old mainstream
P#2
I'll take you, over anything

P#1                     P#1
Let's go back, in time, 1959
P#2

P#1

Chorus

Am         C            F
Your music fills my car
D                                  G
And your voice breaks every time
Bm      Am                                     D                                   Intro
I'm still wonderin', if I know who you are,  I hang on every line

P#1

P#1

Outro same as intro

End on a G

Video Clip de Radio King


ACORDES PARA GUITARRA

PIANO UKELELE


TOP 20: Las más tocadas de Golden Smog


Toca una Canción al Azar de Golden Smog

Acordes

Cerrar

21.44

x

173