Endlessly
Green River Ordinance
Acordes

Subida por Albano
Álbum: Out of My Hands ( 2009)


Más Versiones
Ver. 2

Cambiar Cifrado
Americano Latino

Cambiar Tonalidad
-1 +1

Partir Pantalla Imprimir FAQ

+A
-A


Ver solo la LETRA
Intro:
E|----------0----------------0----------------0----------------0-------------|
B|------1-------1--------1-------1--------1-------1--------1-------1---------|
G|--------0-------0--------0-------0--------0-------0--------0-------0-------|
D|----2-------2--------2-------2--------2-------2--------2-------2-----------|
A|--3----------------3-------------------------------------------------------|
E|------------------------------------3----------------3---------------------|

E|----------0----------------------------------0----------------0------------|
B|------1-------1--------1--------1--------1-------1--------1-------1--------|
G|--------0-------0--------0--------0--------0-------0--------0-------0------|
D|----2-------2--------2--------2--------2-------2--------2-------2----------|
A|-------------------0-------------------------------------------------------|
E|--1-------------------------3--------1----------------1--------------------|

Verso 1:

She is my rock and my rolling thunder, I've been the spell she was under
E|----------0----------------0---------------------0----------------0--------|
B|------1-------1--------1-------1-------------1-------1--------1-------1----|
G|--------0-------0--------0-------0-------------0-------0--------0-------0--|
D|----2-------2--------2-------2-------------2-------2--------2-------2------|
A|--3----------------3-------------------------------------------------------|
E|-----------------------------------------3----------------3----------------|

I, I love that girl.
E|----------0----------------------------------0----------------0------------|
B|------1-------1--------1--------1--------1-------1--------1-------1--------|
G|--------0-------0--------0--------0--------0-------0--------0-------0------|
D|----2-------2--------2--------2--------2-------2--------2-------2----------|
A|-------------------0-------------------------------------------------------|
E|--1-------------------------3--------1----------------1--------------------|

She is my cigarettes and champagne, She's got me strong but I'm not running,
E|----------0----------------0-------------------0----------------0----------|
B|------1-------1--------1-------1-----------1-------1--------1-------1------|
G|--------0-------0--------0-------0-----------0-------0--------0-------0----|
D|----2-------2--------2-------2-----------2-------2--------2-------2--------|
A|--3----------------3-------------------------------------------------------|
E|---------------------------------------3----------------3------------------|

I, I love that girl.
E|----------0----------------------------------0----------------0------------|
B|------1-------1--------1--------1--------1-------1--------1-------1--------|
G|--------0-------0--------0--------0--------0-------0--------0-------0------|
D|----2-------2--------2--------2--------2-------2--------2-------2----------|
A|-------------------0-------------------------------------------------------|
E|--1-------------------------3--------1----------------1--------------------|

I, I love that girl. She is the....
E|----------0----------------------------------0----------------0------------|
B|------1-------1--------1--------1--------1-------1--------1-------1--------|
G|--------0-------0--------0--------0--------0-------0--------0-------0------|
D|----2-------2--------2--------2--------2-------2--------2-------2----------|
A|-------------------0-------------------------------------------------------|
E|--1-------------------------3--------1----------------1--------------------|

Refrão:

days I can't get over. She is the nights that I call home. Endless..
E|----------0----------------0-------------------0----------------0----------|
B|------1-------1--------1-------1-----------1-------1--------1-------1------|
G|--------0-------0--------0-------0-----------0-------0--------0-------0----|
D|----2-------2--------2-------2-----------2-------2--------2-------2--------|
A|--3----------------3-------------------------------------------------------|
E|---------------------------------------3----------------3------------------|

..ly. For you I'll always wait. Caught in the..
E|----------0----------------0-------------------0----------------0----------|
B|------1-------1--------1-------1-----------1-------1--------1-------1------|
G|--------0-------0--------0-------0-----------0-------0--------0-------0----|
D|----2-------2--------2-------2-----------2-------2--------2-------2--------|
A|---------------------------------------3-----------------------------------|
E|--1----------------1------------------------------------3------------------|

..waves of hesitation, lost in the sea of my own doubt, endless...
E|----------0----------------0-------------------0----------------0----------|
B|------1-------1--------1-------1-----------1-------1--------1-------1------|
G|--------0-------0--------0-------0-----------0-------0--------0-------0----|
D|----2-------2--------2-------2-----------2-------2--------2-------2--------|
A|--3----------------3-------------------------------------------------------|
E|---------------------------------------3----------------3------------------|

..ly. For you I'll always wait.
E|----------0----------------0-------------------0----------------0----------|
B|------1-------1--------1-------1-----------1-------1--------1-------1------|
G|--------0-------0--------0-------0-----------0-------0--------0-------0----|
D|----2-------2--------2-------2-----------2-------2--------2-------2--------|
A|---------------------------------------3-----------------------------------|
E|--1----------------1------------------------------------3------------------|

For you I'll always wait.
E|----------0----------------0-------------------0----------------0----------|
B|------1-------1--------1-------1-----------1-------1--------1-------1------|
G|--------0-------0--------0-------0-----------0-------0--------0-------0----|
D|----2-------2--------2-------2-----------2-------2--------2-------2--------|
A|---------------------------------------3-----------------------------------|
E|--1----------------1------------------------------------3------------------|
E|----------0----------------------------------------------------------------|
B|------1-------1------------------------------------------------------------|
G|--------0-------0----------------------------------------------------------|
D|----2-------2--------------------------------------------------------------|
A|---------------------------------------------------------------------------|
E|--3------------------------------------------------------------------------|

Verso 2:

She is the flame in the fire, she's raging, I've been the spark in the war she's waging
E|----------0----------------0---------------------0----------------0--------|
B|------1-------1--------1-------1-------------1-------1--------1-------1----|
G|--------0-------0--------0-------0-------------0-------0--------0-------0--|
D|----2-------2--------2-------2-------------2-------2--------2-------2------|
A|--3----------------3-------------------------------------------------------|
E|-----------------------------------------3----------------3----------------|

I, I love that girl.
E|----------0----------------------------------0----------------0------------|
B|------1-------1--------1--------1--------1-------1--------1-------1--------|
G|--------0-------0--------0--------0--------0-------0--------0-------0------|
D|----2-------2--------2--------2--------2-------2--------2-------2----------|
A|-------------------0-------------------------------------------------------|
E|--1-------------------------3--------1----------------1--------------------|

She came along and she spoke so sweetly, changed everything, took my heart completely
E|----------0----------------0-------------------0----------------0----------|
B|------1-------1--------1-------1-----------1-------1--------1-------1------|
G|--------0-------0--------0-------0-----------0-------0--------0-------0----|
D|----2-------2--------2-------2-----------2-------2--------2-------2--------|
A|--3----------------3-------------------------------------------------------|
E|---------------------------------------3----------------3------------------|

I, I love that girl.
E|----------0----------------------------------0----------------0------------|
B|------1-------1--------1--------1--------1-------1--------1-------1--------|
G|--------0-------0--------0--------0--------0-------0--------0-------0------|
D|----2-------2--------2--------2--------2-------2--------2-------2----------|
A|-------------------0-------------------------------------------------------|
E|--1-------------------------3--------1----------------1--------------------|

I, I love that girl. She is the....
E|----------0----------------------------------0----------------0------------|
B|------1-------1--------1--------1--------1-------1--------1-------1--------|
G|--------0-------0--------0--------0--------0-------0--------0-------0------|
D|----2-------2--------2--------2--------2-------2--------2-------2----------|
A|-------------------0-------------------------------------------------------|
E|--1-------------------------3--------1----------------1--------------------|

Refrão:

..days I can't get over. She is the nights that I call home. Endless..
E|----------0----------------0-------------------0----------------0----------|
B|------1-------1--------1-------1-----------1-------1--------1-------1------|
G|--------0-------0--------0-------0-----------0-------0--------0-------0----|
D|----2-------2--------2-------2-----------2-------2--------2-------2--------|
A|--3----------------3-------------------------------------------------------|
E|---------------------------------------3----------------3------------------|

..ly. For you I'll always wait. Caught in the..
E|----------0----------------0-------------------0----------------0----------|
B|------1-------1--------1-------1-----------1-------1--------1-------1------|
G|--------0-------0--------0-------0-----------0-------0--------0-------0----|
D|----2-------2--------2-------2-----------2-------2--------2-------2--------|
A|---------------------------------------3-----------------------------------|
E|--1----------------1------------------------------------3------------------|

..waves of hesitation, lost in the sea of my own doubt, endless....
E|----------0----------------0-------------------0----------------0----------|
B|------1-------1--------1-------1-----------1-------1--------1-------1------|
G|--------0-------0--------0-------0-----------0-------0--------0-------0----|
D|----2-------2--------2-------2-----------2-------2--------2-------2--------|
A|--3----------------3-------------------------------------------------------|
E|---------------------------------------3----------------3------------------|

..ly. For you I'll always wait. In...
E|----------0----------------0-------------------0----------------0----------|
B|------1-------1--------1-------1-----------1-------1--------1-------1------|
G|--------0-------0--------0-------0-----------0-------0--------0-------0----|
D|----2-------2--------2-------2-----------2-------2--------2-------2--------|
A|---------------------------------------3-----------------------------------|
E|--1----------------1------------------------------------3------------------|

Ponte:

....city bars and empty cars, it's 3am I wonder where you
E|----------0----------------0-------------------0----------------0----------|
B|------1-------1--------1-------1-----------1-------1--------1-------1------|
G|--------0-------0--------0-------0-----------0-------0--------0-------0----|
D|----2-------2--------2-------2-----------2-------2--------2-------2--------|
A|---------------------------------------3-----------------------------------|
E|--1----------------1------------------------------------3------------------|
are. And the...
E|----------0----------------0-------------------0----------------0----------|
B|------1-------1--------1-------1-----------1-------1--------1-------1------|
G|--------0-------0--------0-------0-----------0-------0--------0-------0----|
D|----2-------2--------2-------2-----------2-------2--------2-------2--------|
A|---------------------------------------3-----------------------------------|
E|--1----------------1------------------------------------3------------------|

..crooked smiles, and the worn out miles between us, and I wonder where you
E|----------0----------------0-------------------0----------------0----------|
B|------1-------1--------1-------1-----------1-------1--------1-------1------|
G|--------0-------0--------0-------0-----------0-------0--------0-------0----|
D|----2-------2--------2-------2-----------2-------2--------2-------2--------|
A|---------------------------------------3-----------------------------------|
E|--1----------------1------------------------------------3------------------|
are. She is the...
E|----------0----------------0-------------------0----------------0----------|
B|------1-------1--------1-------1-----------1-------1--------1-------1------|
G|--------0-------0--------0-------0-----------0-------0--------0-------0----|
D|----2-------2--------2-------2-----------2-------2--------2-------2--------|
A|---------------------------------------3-----------------------------------|
E|--1----------------1------------------------------------3------------------|

Refrão:

..days I can't get over. She is the nights that I call home. Endless..
E|----------0----------------0-------------------0----------------0----------|
B|------1-------1--------1-------1-----------1-------1--------1-------1------|
G|--------0-------0--------0-------0-----------0-------0--------0-------0----|
D|----2-------2--------2-------2-----------2-------2--------2-------2--------|
A|--3----------------3-------------------------------------------------------|
E|---------------------------------------3----------------3------------------|

..ly. For you I'll always wait. Caught in the..
E|----------0----------------0-------------------0----------------0----------|
B|------1-------1--------1-------1-----------1-------1--------1-------1------|
G|--------0-------0--------0-------0-----------0-------0--------0-------0----|
D|----2-------2--------2-------2-----------2-------2--------2-------2--------|
A|---------------------------------------3-----------------------------------|
E|--1----------------1------------------------------------3------------------|

..waves of hesitation, lost in the sea of my own doubt, endless...
E|----------0----------------0-------------------0----------------0----------|
B|------1-------1--------1-------1-----------1-------1--------1-------1------|
G|--------0-------0--------0-------0-----------0-------0--------0-------0----|
D|----2-------2--------2-------2-----------2-------2--------2-------2--------|
A|--3----------------3-------------------------------------------------------|
E|---------------------------------------3----------------3------------------|

..ly. For you I'll always wait.
E|----------0----------------0-------------------0----------------0----------|
B|------1-------1--------1-------1-----------1-------1--------1-------1------|
G|--------0-------0--------0-------0-----------0-------0--------0-------0----|
D|----2-------2--------2-------2-----------2-------2--------2-------2--------|
A|---------------------------------------3-----------------------------------|
E|--1----------------1------------------------------------3------------------|

For you I'll always wait.
E|----------0----------------0-------------------0----------------0----------|
B|------1-------1--------1-------1-----------1-------1--------1-------1------|
G|--------0-------0--------0-------0-----------0-------0--------0-------0----|
D|----2-------2--------2-------2-----------2-------2--------2-------2--------|
A|---------------------------------------3-----------------------------------|
E|--1----------------1------------------------------------3------------------|

For you I'll always wait.
E|----------0----------------0-------------------0----------------0----------|
B|------1-------1--------1-------1-----------1-------1--------1-------1------|
G|--------0-------0--------0-------0-----------0-------0--------0-------0----|
D|----2-------2--------2-------2-----------2-------2--------2-------2--------|
A|---------------------------------------3-----------------------------------|
E|--1----------------1------------------------------------3------------------|

ACORDES PARA GUITARRA

PIANO UKELELE


COMENTARIOS

Aún no hay comentarios,

¡escribe el primero!

Escribe una pregunta, duda o comentario sobre esta canción, te responderemos a la brevedad.

Las más tocadas de Green River Ordinance

Toca una Canción al Azar de Green River Ordinance