Cheia de Charme

Guilherme Arantes

Acordes

Despertar (1985)
Subida por marianomartinez


Más Versiones
Ver. 2 Ver. 3 Ver. 4 Ver. 5 Ver. 6

Cambiar Cifrado
Americano Latino

Cambiar Tonalidad
-1 +1

Partir Pantalla Imprimir FAQ

+A
-A
Mudar para Português

Ver solo la LETRA
Cheia de charme
Guilherme Arantes


Intro.: G D/A A Em/B Bm B4 Em/B Bm


E|-------0-|-2----0-|---3-3-|-2-|---|-3-|-2-|
B|---0-3---|-3----2-|---5-5-|---|-5-|-5-|---|
G|---0-----|-2----2-|---4-4-|---|-4-|-4-|---|
D|---0-----|------2-|-------|---|---|---|---|
A|---------|-0----0-|-2-----|---|-3-|---|---|
E|-3-------|--------|-------|---|---|---|---|


D9 F#m7(11) B4 Bm B9 Bm
Quando a vi, logo ali tão perto
Em7 G/A A7(9) D7M G7M
Tão ao meu alcan-ce, tão distante, tão real
Em7 F#7 Bm D/F# G G/A
Tão bom perfume sei lá

D9 F#m7(11) B4 Bm B9 Bm
Investi tudo naquele olhar
Em7 G/A A7(9) D7M G7M
Tantas pala--vras num breve sussurrar
Em7 A D9 D/F#
Paixão assim não acontece todo dia

G Em7 A D/F# G Em7 A D/F#
Hum! cheia de charme, um desejo enorme
G A Bm D/F# G Em7 A D/F#
De se aventurar cheia de charme
G Em7 A D/F# G A Bm D/F# G A D9
Um desejo enorme de revolucionar


D9 F#m7(11) B4 Bm B9 Bm
Me perdi entre os seus cabe-los
Em7 G/A A7(9) D7M G7M
Pela sua pe|--le, nos seus lábios tão macios
Em7 F#7 Bm D/F# G G/A
Tão bom perfume sei lá

D9 F#m7(11) B4 Bm B9 Bm
Investi tudo naquele olhar...

G Em7 A D/F#
Hum! cheia de charme...

G Em7 A D/F# G A Bm D/F# G A
Um desejo enorme de revolucionar


G D/A A Em/B Bm B4 Em/B Bm


E|-------0-|-2----0-|---3-3-|-2-|---|-3-|-2-|
B|---0-3---|-3----2-|---5-5-|---|-5-|-5-|---|
G|---0-----|-2----2-|---4-4-|---|-4-|-4-|---|
D|---0-----|------2-|-------|---|---|---|---|
A|---------|-0----0-|-2-----|---|-3-|---|---|
E|-3-------|--------|-------|---|---|---|---|

NUEVO FORO DE MÚSICA

¿Tienes alguna duda, consulta, pregunta, consejo o algo para compartir sobre esta canción?

¡Puedes abrir un hilo en el FORO para que la comunidad te ayude! Hacer una pregunta

ACORDES PARA GUITARRA

PIANO UKELELE
G
D/A
A
Em/B
Bm
B4
D9
F#m11
B9
Em7
G/A
A9
Dmaj7
Gmaj7
F#7
D/F#


Las más tocadas de Guilherme Arantes

G
D/A
A
Em/B
Bm
B4
D9
F#m11
B9
Em7
G/A
A9
Dmaj7
Gmaj7
F#7
D/F#