Time (Acordes)

Gustavo Bertoni

Subida por Yeredfilms

Compartir


Imprimir FAQ
+A
-A

Texto

Desplazamiento

Transportador

Color de Fondo

Archivos

-A
+A
Introdução: C Am E (2x)


E|------------------------------------------|
B|---8-10---8-10----------------------------|
G|-9------9------9-7--0h2-0-0-0-0-0---0-----|
D|--------------------0---0-2-0-2---2-0-----|
A|------------------------------------------|
E|------------------------------------------|

E|--------------------------------0---------|
B|---8-10---8-10------------------1---------|
G|-9------9------9/11-11/13-13----0---------|
D|--------------------------------2---------|
A|--------------------------------3---------|
E|------------------------------------------|


C          Am                  E           Em
I'm so far down you can't even hurt me now
                A7               E         C
I've learned to see with my eyes shut
          Am            E
I heard a bird sing the saddest melody
        Em             A7            E
About a paramount love, gone with the wind

Refrão:

G         A            E
Well I hope time heals everything
             G       A           E
Cause I need a miracle, not just anything

Repete introdução:

E|------------------------------------------|
B|---8-10---8-10----------------------------|
G|-9------9------9-7--0h2-0-0-0-0-0---0-----|
D|--------------------0---0-2-0-2---2-0-----|
A|------------------------------------------|
E|------------------------------------------|

E|--------------------------------0---------|
B|---8-10---8-10------------------1---------|
G|-9------9------9/11-11/13-13----0---------|
D|--------------------------------2---------|
A|--------------------------------3---------|
E|------------------------------------------|


2ª parte (essa parte não toca o violão, a não
ser no último verso, é a mesma coisa da 1ª parte):

What would life be without misery?
It would grow too bright, light would blind us all
Every moment is a lesson to be learned
So hold your head up high

Guitarra (2ª Parte):

E|------------------------------------------|
B|-------12-14b15p12----12------------------|
G|-12/14-------------14---------------------|
D|------------------------------------------|
A|------------------------------------------|
E|------------------------------------------|

E|------------------------------------------|
B|-17...-16...-15...------------------------|
G|------------------14...-16...-------------|
D|------------------------------------------|
A|------------------------------------------|
E|------------------------------------------|

Refrão:

G         A            E
Well I hope time heals everything
             G       A           E
Cause I need a miracle, not just anything
You've been punishing me, while I'm trying to move on
But honey you're not worth it, you've been in too many songs

A parte final do refrão:

E|------------------------------------------|
B|------------------------------------------|
G|-----------------------7------------------|
D|-2-2-2-5-5/7-7-5-2-2-2-7------------------|
A|-2-2-2-5-5/7-7-5-2-2-2-5------------------|
E|-0-0-0-3-3/5-5-3-0-0-0--------------------|

Video Clip de Time


ACORDES PARA GUITARRA

PIANO UKELELE
C
Am
E
Em
A7
G
A


TOP 20: Las más tocadas de Gustavo Bertoni


Acordes

Cerrar
C
Am
E
Em
A7
G
A

11.16

x

136