The Last Of Us (Acordes)

Gustavo Santaolalla

Subida por cristijiimenez

Compartir


Imprimir FAQ
+A
-A

Texto

Desplazamiento

Transportador

Color de Fondo

Archivos

-A
+A
E|------0-----0-----0-----0-----0-----0-----|
B|----0-----0-----0-----0-----0-----0-------|
G|--12----12----12----12----12----12--------| (5x)
D|------------------------------------------|
A|------------------------------------------|
E|------------------------------------------|

E|------0-----0-----0-----0-----0-----0-----0-----0-|
B|----0-----0-----0-----0-----0-----0-----0-----0---|
G|--12----9-----14----11----12----12----12----12----|
D|--------------------------------------------------|
A|--------------------------------------------------|
E|--------------------------------------------------|

E|------0-----0-----0-----0--------0-----0-----0-----0-|
B|----0-----0-----0-----0--------0-----0-----0-----0---|
G|--12----9-----14----11----14/16----16----16----16----|
D|-----------------------------------------------------|
A|-----------------------------------------------------|
E|-----------------------------------------------------|

E|------0--------0-----0-----0-----0-----0-----0-----0-|
B|----0--------0-----0-----0-----0-----0-----0-----0---|
G|--12h14p12-9-----14----11----12----12----12----12----|
D|-----------------------------------------------------|
A|-----------------------------------------------------|
E|-----------------------------------------------------|

E|------0-----0------------0-----0-------0--|
B|----0-----0------------0-----0-------0----|
G|--15----14-----12h14p12----9-----7h9------|
D|------------------------------------------|
A|------------------------------------------|
E|------------------------------------------|

E|------0-----0-----0--|
B|----0-----0-----0----|
G|--9-----9-----9------| (4x)
D|---------------------|
A|---------------------|
E|---------------------|

E|--10----10----10----10----9-----9-----9-----9-----|
B|------0-----0-----0-----0-----0-----0-----0-----0-|
G|----9-----9-----9-----9-----9-----9-----9-----9---|
D|--------------------------------------------------|
A|--------------------------0-----------------------|
E|--0-----------------------------------------------|

E|--8-----8-----8-----8-----7-----7-----7-----7-----|
B|------0-----0-----0-----0-----0-----0-----0-----0-|
G|----9-----9-----9-----9-----9-----9-----9-----9---|
D|--------------------------------------------------|
A|--0-----------------------------------------------|
E|--------------------------0-----------------------|

E|--10----10----10----10/12-10-9-----9-----9-----9-----|
B|------0-----0-----0--------------0-----0-----0-----0-|
G|----9-----9-----9--------------9-----9-----9-----9---|
D|-----------------------------------------------------|
A|-----------------------------0-----------------------|
E|--0--------------------------------------------------|

E|--8-----8-----8-----8-----7-----7-----7-----7-----|
B|------0-----0-----0-----0-----0-----0-----0-----0-|
G|----9-----9-----9-----9-----9-----9-----9-----9---|
D|--------------------------------------------------|
A|--0-----------------------------------------------|
E|--------------------------0-----------------------|

E|--5-----5-----5-----5-----5---------3-----2-----|
B|----0-----0-----0-----0-----0---------1-----0---|
G|------5-----5-----5-----5-----5-----2---2-----2-|
D|------------------------------------------------|
A|--0---------------------------------------------|
E|------------------------------------------------|

E|-0h2p0---------------------|
B|-------0---0h3p0-----------|
G|---------2-------2---------|
D|---------------------------|
A|---------------------------|
E|---------------------------|

E|--2-----2-----2-----2-----2-----2-----2---3-----|
B|----1-----1-----1-----1-----1-----1---------0---|
G|--2---2-----2-----2-----2-----2-----2---------4-|
D|------------------------------------------------|
A|------------------------------------------------|
E|------------------------------------------------|

E|-0-----0-----0-----0-----0----|
B|---0-----0-----0-----0--------|
G|-----4-----4-----4-----4------|
D|------------------------------|
A|------------------------------|
E|-0----------------------------|

E|------0-----0-----0-----0-----0-----0-----0-----0-|
B|----0-----0-----0-----0-----0-----0-----0-----0---|
G|--12----9-----14----11----12----12----12----12----|
D|--------------------------------------------------|
A|--------------------------------------------------|
E|--------------------------------------------------|

E|------0-----0-----0-----0--------0-----0-----0-----0-|
B|----0-----0-----0-----0--------0-----0-----0-----0---|
G|--12----9-----14----11----14/16----16----16----16----|
D|-----------------------------------------------------|
A|-----------------------------------------------------|
E|-----------------------------------------------------|

E|------0-----0-----0-----0-----0-----0-----0-----0-|
B|----0-----0-----0-----0-----0-----0-----0-----0---|
G|--12----9-----14----11----12----12----12----12----|
D|--------------------------------------------------|
A|--------------------------------------------------|
E|--------------------------------------------------|

E|------0-----0------0-----0-------0-----0-----0-|
B|----0-----0------0-----0-------0-----0-----0---|
G|--15----14-----12----9-----7h9-----9-----9-----|
D|-----------------------------------------------|
A|-----------------------------------------------|
E|-----------------------------------------------|

E|----0-----0-----0-----0-----0-|
B|--0-----0-----0-----0-----0---|
G|9-----9-----9-----9-----9-----|
D|------------------------------|
A|------------------------------|
E|------------------------------|

    C          G          C          G
E|--0---------------------0----------0---------|
B|--0----------0----------0----------0---------|
G|--0----------0----------0----------0---------|
D|--2-.-.-.-.--0----------2-.-.-.-.--0---------|
A|--3----------2-.-.-.-.--3----------2-.-.-.-.-|
E|-------------3---------------------3---------|

   Bm         C
E|-2----------0----------------|
B|-3----------0----------------|
G|-4----------0----------------|
D|-4-.-.-.-.--2-.-.-.-.--------|
A|-2----------3----------------|
E|-----------------------------|

    Bm         C          G
E|--2----------0----------0---------|
B|--3----------0----------0---------|
G|--4----------0----------0---------|
D|--4-.-.-.-.--2-.-.-.-.--0---------|
A|--2----------3----------2-.-.-.-.-|
E|------------------------3---------|

E|------0-----0-----0-----0-----0-----0-----0-----0-|
B|----0-----0-----0-----0-----0-----0-----0-----0---|
G|--12----9-----14----11----12----12----12----12----|
D|--------------------------------------------------|
A|--------------------------------------------------|
E|--------------------------------------------------|

E|------0-----0-----0-----0--------0-----0-----0-----0-|
B|----0-----0-----0-----0--------0-----0-----0-----0---|
G|--12----9-----14----11----14/16----16----16----16----|
D|-----------------------------------------------------|
A|-----------------------------------------------------|
E|-----------------------------------------------------|

E|------0-----0-----0-----0-----0-----0-----0-----0-|
B|----0-----0-----0-----0-----0-----0-----0-----0---|
G|--12----9-----14----11----12----12----12----12----|
D|--------------------------------------------------|
A|--------------------------------------------------|
E|--------------------------------------------------|

E|------0-----0------0-----0-------0-----0-----0-----0-|
B|----0-----0------0-----0-------0-----0-----0-----0---|
G|--15----14-----12----9-----7h9-----9-----9-----9-----|
D|-----------------------------------------------------| (2x)
A|-----------------------------------------------------|
E|-----------------------------------------------------|

E|------------------------------------0----------12-|
B|-----------------------------------0----------12--|
G|--15--14h15p14--12----------------0----------12---|
D|---------------------------------2----------14----|
A|--------------------------------2-----------------|
E|-------------------------------0------------------|






HERRAMIENTAS ACORDESWEB:


LETRA DE LA CANCIÓN:

Ver la letra sola (sin acordes)

OTRAS VERSIONES DE LA MISMA CANCIÓN:

Ver. 2 Ver. 3 Ver. 4 Ver. 5 Ver. 6

DESCARGAR PDF / IMPRIMIR CANCIÓN



ACORDES PARA GUITARRA

PIANO UKELELE


TOP 20: Las más tocadas de Gustavo Santaolalla


Acordes

Cerrar

02.15


168