Mentiras (Haderek) Acordes

Álbum: Segundos que não vi (0)



Cifrado |Americano| - |Latino|

Cambiar Tonalidad
BAJAR UN TONO BAJAR UN SEMI-TONO SUBIR UN SEMI-TONO SUBIR UN TONO PARTIR PANTALLA EN VERTICAL PARTIR PANTALLA EN VERTICAL ¡Ayuda!
-A
+A
(intro)
D Em G A Bm A G (Guitarra Clean)
D A Em G D A G (Base Overdrive)

(pista 1)
E|------------------------------|---------------------------|
B|------------------------------|---------------------------|
G|--12----11--------------------|---------------------------|
D|------------12----------14----|-----------12--12--12--12--|
A|------------------12----------|---------------------------|
E|------------------------------|---------------------------|

E|-----------------------------------------|-----|------------------------------|
B|-----------------------------------------|-----|------------------------------|
G|-----------------------------------------|-----|--12----11--------------------|
D|-------------11--12----------------------|-----|------------12----------14----|
A|--14-------------------10----------------|-----|------------------12----------|
E|-----------------------------------------|-----|------------------------------|

E|---------------------------|---------------------------------|
B|---------------------------|---------------------------------|
G|---------------------------|-------------11--11----12--------|
D|-----------12--12--12--12--|---------------------------------|
A|---------------------------|--14-----------------------------|
E|---------------------------|---------------------------------|

E|-------------------|--15----14--------------------|---------------------------|
B|-------------------|------------15----------17----|-----------15--15--15--15--|
G|-------11----------|------------------14----------|---------------------------|
D|-------------12----|------------------------------|---------------------------|
A|-------------------|------------------------------|---------------------------|
E|-------------------|------------------------------|---------------------------|

E|-----------------------------------------|--15----14--------------------|
B|-------------14--15----------------------|------------15----------17----|
G|--16-------------------12----------------|------------------14----------|
D|-----------------------------------------|------------------------------|
A|-----------------------------------------|------------------------------|
E|-----------------------------------------|------------------------------|

B|---------------------------|-------------14--14----15--------|-------14----------||
B|-----------15--15--15--15--|---------------------------------|-------------15----||
G|---------------------------|--16-----------------------------|-------------------||
D|---------------------------|---------------------------------|-------------------||
A|---------------------------|---------------------------------|-------------------||
E|---------------------------|---------------------------------|-------------------||
(solo junto com o Overdrive)

D Em G A
acreditar no que vão dizer
Bm A G
pode fazer você pensar em desistir
D Em
tirar conclusões
G A Bm
ou até confiar em pessoas que
A G
não tão nem aí

Bm G
Não duvidar
A
que falsas verdades
D/F# G
não devem significar
A G D
não podem fazer você aceitar

D A
Mentir
Em G
Quando sabe a verdade
D A G
Fingir que não poderia ser
D A
Abri os olhos
Em G Bm
E percebi com tua presença em mim
A G
Não preciso me esconder

(intro) (repete a musica)

(solo)
E|------------------------------|-------------------------|
B|------------------------------|-------------------------|
G|------------------------------|-------------------------|
D|------------------------------|-------------------------|
A|--7--7--10--10--7--7--10--10--|--7-----12---------12----|
E|------------------------------|-------------------------|

E|------------------------------|-----------------------|
B|------------------------------|-----------------------|
G|------------------------------|-----------------------|
D|------------------------------|-----------------------|
A|--7--7--10--10--7--7--10--10--|--7-----5---------5----|
E|------------------------------|-----------------------|

E|------------------------------|-------------------------|
B|------------------------------|-------------------------|
G|------------------------------|-------------------------|
D|------------------------------|-------------------------|
A|--7--7--10--10--7--7--10--10--|--7-----12---------12----|
E|------------------------------|-------------------------|

E|------------------------------|----------------------------|-------------------|
B|------------------------------|----------------------------|--8----------------|
G|------------------------------|----------------------------|-------------------|
D|------------------------------|----------------------------|-------------------|
A|--7--7--10--10--7--7--10--10--|--7-----7--9--10--9--7------|-------------------|
E|------------------------------|------------------------10--|--8----------------|

E|--------------------|
B|--10----------------|
G|--------------------|
D|--------------------|
A|--------------------|
E|---7----------------|

C#m A
Não duvidar
B
que falsas verdades
E/G# A
não devem significar
B A E
não podem fazer você aceitar

E B
Mentir
F#m A
Quando sabe a verdade
E B A
Fingir que não poderia ser
C#m B
Abri os olhos
F#m A C#m
E percebi com tua presença em mim
B A
Não preciso me esconder


Toca una Canción al Azar de Haderek



ACORDES PARA GUITARRA - ACORDES PARA UKELELE

D
Em
G
A
Bm
D/F#
C#m
B
E/G#
E
F#m




Aún no hay comentarios, ¡escribe el primero!

Escribe un comentario o pregunta sobre esta canción:




Más canciones de Haderek

Além Das Palavras
Mentiras

Siguiente


ABRIR ACORDES
D
Em
G
A
Bm
D/F#
C#m
B
E/G#
E
F#m
[X]CERRAR ACORDES

Nuestro servidor se demoró 0.05 segundos en generar esta página. Eso fue realmente muy rápido!