Ramblin Man

Hank Williams

Acordes

Subida por pulis2321



Cambiar Cifrado
Americano Latino

Cambiar Tonalidad
-1 +1

Partir Pantalla Imprimir FAQ

+A
-A


Ver solo la LETRA
-----------------------------------------------------------------------------

                       Ramblin' Man' - Hank Williams Sr.
-----------------------------------------------------------------------------
okay I'd like all of you to know that this is not by Hank Williams Jr, it was by Hank Williams Sr.
Chorded by: A Darker Breed

(Am)
I can settle down, and be doin' just fine
Till' I (E7) hear an old train rollin' down (Am)the line
Then I hurry straight home and pack
And if I (E7) didn't go, I believe I'd blow my (Am) stack
I love you baby, but you gotta understand
When the (E7) Lord made me
He made a Ramblin' (Am) Man.


Chord Diagrams:

   Am   E7
e|----|----|
B|--1-|--3-|
G|--2-|--1-|
D|--2-|--2-|
A|----|--2-|
E|----|----|


In the intro guitar (just Am) a second guitar clean w/ delay plays

e|-----17---20-|
B|---17--------|
G|-17----------|
D|-------------|
A|-------------|
E|-------------|

ACORDES PARA GUITARRA

PIANO UKELELE
Am
E7


Las más tocadas de Hank Williams

Am
E7