Into The Light

Holiness

Acordes

Beneath the Surface (0)
Subida por Lennik



Cambiar Cifrado
Americano Latino

Cambiar Tonalidad
-1 +1

Partir Pantalla Imprimir FAQ

+A
-A
Mudar para Português

Ver solo la LETRA
Intro:
Am G F G
E|--------------------------------------------------------------------------------------
B|--------1-----0-----1--------1----0----1--------1----0-----1--------1-----0-----1-----
G|--------------------------------------------------------------------------------------
D|-----2-----2-----2--------0----0-----0-------0----0-----0--------0-----0-----0--------
A|--0-----------------------------------------------------------------------------------
E|-----------------------3------------------1-------------------3-----------------------

Estrofe:
E|--------------------------------------------------------------------------------------
B|--------1-----0--------------1-----0------------1-----0--------------1----0-----------
G|-------------------------------------------------------------0------------------------
D|---------------------------------------------------------0----------------------------
A|--0-----------------------------------------------------------------------------------
E|-----------------------3-------------------1--------------------3---------------------

Am G
I'm not gonna say I'm sorry
F G
For the things that I have done
Am G
I don't mind if you don't mind
F G
Our time is passing by

F G Am G
I don't know you anymore
F G Am G
And there are no excuses right now
F G Am
Inside your head, tell me what's going on
G F G
Tell me what's going on?

Am
Out of the darkness
G
Into the light
F
Feeling my soul
G
Begging for more
Am
Break all these chains
G
And take them away
F
I need to break
G
What I wanna change

( Am G F G )

Am G
I'm not gonna find a reason
F G
I won't doubt my mistakes

F G
I know that I have changed
Am G
I'm not the same
F G Am G
And I can feel that I found my way
F G
Because I won't be there
F
To catch you when you fall
G F G
To hold you when you're down

Am
Out of the darkness
G
Into the light
F
Feeling my soul
G
Begging for more
Am
Break all these chains
G
And take them away
F
I need to break
G
What I wanna change

Am
Out of the darkness
G
Into the light
F
Feeling my soul
G
Begging for more
Am
Break all these chains
G
And take them away
F
I need to break
G
What I wanna change

( Am G F G )

F G Am
I won't be there
G F
To catch you when you fall
G F
To hold you when you're down
Am G F G
More and more I see the end
Am G
And that feels good
F G F G
I don't need to try anymore

Am
Out of the darkness
G
Into the light
F
Feeling my soul
G
Begging for more
Am
Break all these chains
G
And take them away
F
I need to break
G
What I wanna change

Am
Out of the darkness
G
Into the light
F
Feeling my soul
G
Begging for more
Am
Break all these chains
G
And take them away
F
I need to break
G
What I wanna change

( Am G F G )

NUEVO FORO DE MÚSICA

¿Tienes alguna duda, consulta, pregunta, consejo o algo para compartir sobre esta canción?

¡Puedes abrir un hilo en el FORO para que la comunidad te ayude! Hacer una pregunta

ACORDES PARA GUITARRA

PIANO UKELELE
Am
G
F


Las más tocadas de Holiness

Am
G
F