Cama de Casal (Hungria Hip Hop) Acordes

Álbum: Meu Carona (2015)



Cifrado |Americano| - |Latino|

Cambiar Tonalidad
BAJAR UN TONO BAJAR UN SEMI-TONO SUBIR UN SEMI-TONO SUBIR UN TONO PARTIR PANTALLA EN VERTICAL PARTIR PANTALLA EN VERTICAL ¡Ayuda!
-A
+A
E|-----------------6-----------------------|
B|-------------------9-8-8h9--9-8-6-8-9-8-8|
G|-----555-7-7/8-7-------------------------|
D|-----------------------------------------|
A|-----------------------------------------|
E|-----------------------------------------|

E|-----------------6-----------|
B|-------------------9-8-8h9---|
G|-----555-7-7/8-7-------------|
D|-----------------------------|
A|-----------------------------|
E|-----------------------------|

E|-----------------6-6-6------------------------------6--------------|
B|-----------------------9-9-9-8-8-8-----9-8-6-6/8-9-----9-8-6-6/8---|
G|-----555-7-7/8-7---------------------------------------------------|
D|-------------------------------------------------------------------|
A|-------------------------------------------------------------------|
E|-------------------------------------------------------------------|

Cm Gm
É no banco de trás do carro que eu te levo ao céu
A# Fm
Melhor do que qualquer suíte do melhor motel
Cm Gm
Linda e fogosa, fora do normal
A# Fm Cm
Hoje banco de trás vai virar, uma cama de casal
Gm A#
(cama de casal, cama de casal
Fm Cm
Uma cama de casal, uma cama de casal
Gm A# Fm
Cama de casal, uma cama de casal, uma cama de casal)

Cm Gm
As 21 ela me liga ô é novidade em
A# Fm
Essa quinta-feira tá cheirando a sacanagem
Cm Gm A#
As 22 passo ai. ok? pode esperar
Fm Cm
Eu tô aqui pra te escutar
Gm A#
Eu tô na maldade mas sem nenhum real
Fm Cm
Mas o banco de trás vira cama de casal
Gm A#
O meu melhor perfume eu tô que tô na pista
Fm Cm
Meu melhor relógio, pinta de artista
Gm A#
Enquanto me arrumava perguntei espelho meu
Fm Cm
Se existe algum boy mais safado do que eu?
Gm A#
Em caminho ao carro vou pensando aqui comigo
Fm Cm
Sera que tá de leg ou com aquele vestido
Gm A#
O sorriso é brilhante igual ao aro que é esparro
Fm Cm
Ela tá de salto alto mas é rebaixado o carro

E|------------------------------|
B|--9-8-6-8-9--11-9-8-6-6-------|
G|------------------------------|
D|------------------------------|
A|------------------------------|
E|------------------------------|

Cm Gm
É no banco de trás do carro que eu te levo ao céu
A# Fm
Melhor do que qualquer suíte do melhor motel
Cm Gm
Linda e fogosa, fora do normal
A# Fm Cm
Hoje banco de trás vai virar, uma cama de casal
Gm A#
(cama de casal, cama de casal
Fm Cm
Uma cama de casal, uma cama de casal
Gm A# Fm
Cama de casal, uma cama de casal, uma cama de casal)

Cm Gm
Na porta da casa dela esbanjando vale night
A# Fm
Saiu com um decote impossível não ver maldade
Cm Gm
Entrou no carro, 2 beijinho, mão na perna é normal
A# Fm
tô tipo lendo em braile em um mapa escultural
Cm Gm
Ele não te deu valor, ele não quis te agradar
A# Fm
Ontem ele te perdeu, hoje eu vou te ganhar
Cm Gm
Para de chorar esquece essa história
A# Fm
Que dentro da minha casa uma mulher quer ser sua sogra
Cm Gm
Ganhei mais um sorriso, velhos tempos don juan
A# Fm
E hoje o carro pula até 6 horas da manha
Cm Gm
A meia noite o tempo esfria, desligo o ar condicionado
A# Fm
É um aquecedor humano essa mulher que eu tô do lado

Cm Gm
É no banco de trás do carro que eu te levo ao céu
A# Fm
Melhor do que qualquer suíte do melhor motel
Cm Gm
Linda e fogosa, fora do normal
A# Fm Cm
Hoje banco de trás vai virar, uma cama de casal
Gm A#
(cama de casal, cama de casal
Fm Cm
Uma cama de casal, uma cama de casal
Gm A# Fm
Cama de casal, uma cama de casal, uma cama de casal)


Toca una Canción al Azar de Hungria Hip Hop



ACORDES PARA GUITARRA - ACORDES PARA UKELELE

Cm
Gm
A#
Fm
E




Aún no hay comentarios, ¡escribe el primero!

Escribe un comentario o pregunta sobre esta canción:




Más canciones de Hungria Hip Hop

Dubai
Carruagem
Cama de Casal
Detalhes

Siguiente


ABRIR ACORDES

Nuestro servidor se demoró 0.02 segundos en generar esta página. Eso fue realmente muy rápido!