Carruagem

Hungria Hip Hop

Acordes

Meu Carona (2015)
Subida por JoshuaD


Más Versiones
Ver. 2 Ver. 3 Ver. 4 Ver. 5 Ver. 6

Cambiar Cifrado
Americano Latino

Cambiar Tonalidad
-1 +1

Partir Pantalla Imprimir FAQ

+A
-A
Mudar para Português

Ver solo la LETRA
            Gm        F
E|--------------------------|
B|--------------------------|
G|------4-4-4-4--3-3-3-3----|
D|-------6-6-6-6--5-5-5-5---|
A|--------------------------|
E|--------------------------|

Gm
Aí garçom, leva esse bilhete pra essa dama
F
Nele tá escrito minhas nobres intenções
Gm
Aí garçom, avisa que a noite vai ser bacana
F
Dose de prazer e de segundas intenções
Gm
A gente vai andar de carruagem
F
Vou guardar segredo se rolar a sacanagem
Gm
A gente vai andar de carruagem
F
Se alguém perguntar foi só um rolé na cidade
Gm
A gente vai

E|--------------------------|
B|--------------------------|
G|------3-3-3-3--2-2-2-2----| 3x
D|-------5-5-5-5--3-3-3-3---|
A|--------------------------|
E|--------------------------|

Gm
Você apareceu... a química bateu
F
O clima esquentou, você me derreteu
Gm
Tão sozinha por que? ninguém pra conversar
F
1 é impar, 3 é impar, mas nós dois é par

Gm
E esse seu vestido longo atiça ainda mais
F
Eu imagino esse seu corpo e o que ele é capaz
Gm
Lê o bilhete com carinho e pensa na proposta
F
E se entrar na carruagem eu já sei a resposta

Gm
É mulher de postura, a verdadeira dama
F
De mão dada na rua, pede tapa na cama
Gm
E se rolar a sacanagem ninguém vai saber
F
Vai ser um trio, você e eu, e o puro prazer

Gm
Aí garçom, leva esse bilhete pra essa dama
F
Nele tá escrito minhas nobres intenções
Gm
Aí garçom, avisa que a noite vai ser bacana
F
Dose de prazer e de segundas intenções
Gm
A gente vai andar de carruagem
F
Vou guardar segredo se rolar a sacanagem
Gm
A gente vai andar de carruagem
F
Se alguém perguntar foi só um rolé na cidade
Gm
A gente vai

E|--------------------------|
B|--------------------------|
G|------3-3-3-3--2-2-2-2----| 3x
D|-------5-5-5-5--3-3-3-3---|
A|--------------------------|
E|--------------------------|

Gm
Muito prazer, meu bem
F
Sabia que ia vir, pois toda dama igual você

Quer um homem igual a mim
Gm
Primeira a carruagem, segundo hidromassagem
F
Terceiro a gente se entrega nessa sacanagem

Gm
Então você me borra todo com esse seu batom
F
E eu viajo ao ver você morder o edredom
Gm
Calma, não vai doer, o que eu vou fazer
F
A vida é uma só pra se arrepender

Gm
Aí garçom, leva esse bilhete pra essa dama
F
Nele tá escrito minhas nobres intenções
Gm
Aí garçom, avisa que a noite vai ser bacana
F
Dose de prazer e de segundas intenções
Gm
A gente vai andar de carruagem
F
Vou guardar segredo se rolar a sacanagem
Gm
A gente vai andar de carruagem
F
Se alguém perguntar foi só um rolé na cidade
Gm
A gente vai

E|--------------------------|
B|--------------------------|
G|------3-3-3-3--2-2-2-2----| 3x
D|-------5-5-5-5--3-3-3-3---|
A|--------------------------|
E|--------------------------|

NUEVO FORO DE MÚSICA

¿Tienes alguna duda, consulta, pregunta, consejo o algo para compartir sobre esta canción?

¡Puedes abrir un hilo en el FORO para que la comunidad te ayude! Hacer una pregunta

ACORDES PARA GUITARRA

PIANO UKELELE
Gm
F


Las más tocadas de Hungria Hip Hop

Gm
F