Raptado
Intoxicados
Acordes

Subida por tete42
Álbum: Buen día ( 2001)


Más Versiones
Ver. 2 Ver. 3
+A
-A
RAPTADO-INTOXICADOS


Riff principal (intro y estribillo)

e|-----------------------------------
B|-----------------------------------
G|-9--7-9--7-9--7-9----7-9--7-9--7-9-
D|-9--7-9--7-9--7-9----7-9--7-9--7-9-
A|-7--5-7--5-7--5-7----5-7--5-7--5-7-
E|-------------------7---------------

Punteo sobre el riff principal
e|------------------------------
B|------------------------------
G|-----6s4v---------------------
D|------------------------------
A|-5s7--------------------------
E|------------------------------


Riff A Riff B Riff C Riff D
e|--------|------------|------------------|----------------------------
B|--------|----5-------|-0h3-0------------|-0h3-0----------------------
G|--------|-s4---4-7b--|-------3-2-0------|-------3-2-0----------------
D|--------|------------|-------------2----|-------------2-0------------
A|-0------|------------|------------------|-----------------2-1-0------
E|---3b-0-|------------|------------------|-----------------------3b-0-



E5 riff A
Estoy raptado

E5
secuestrado

E5 riff A
encerrado

E5 riff A
en mi ciudad

E5 riff A
mi libertad es corta

E5
puedo salir a algun lado

E5 riff A
pero siempre vuelvo

E5
a ser raptado


INTRO


E5 Riff A
Estoy secuestrado

E5
Encerrado

E5 Riff A
mi cuerpo esta en la tierra

E5
mis pensamientos raptados

E5 Riff B
La Fianza no es tan grande

E5 riff A
Yo la podria pagar

E5
pero me estoy acostumbrando

E5
a estar raptado


Estribillo (riff principal)

Riff C
Raptado
Riff C
Secuestrado
Riff C
Encerrado
Riff D
En mi ciudad



Solo (2:46)

e|-12--12--12--12--12------12----------------------------------
B|-15b-15b-15b-15b-15b--15-12-14-12--12-14-12--15--15----------
G|----------------------------14-12--12-14-12--14b----14ba-p12-
D|-------------------------------------------------------------
A|-------------------------------------------------------------
E|-------------------------------------------------------------

e|-------------------------------------------------------------
B|---------------------------15------15--15--------------------
G|----12b-----------------12-14ba-12-14b-14ba-p12----12b-------
D|-14------14-12----12-14-------------------------14-----------
A|---------------14--------------------------------------------
E|-------------------------------------------------------------

e|-------------------------------------------------------------
B|-----15v-----15v-----15v-----16v-15v-15--15--15---15--15-15--
G|-16v-----16v-----16v-----16v---------16v-16v-16v--16v--------
D|-------------------------------------------------------------
A|-------------------------------------------------------------
E|-------------------------------------------------------------

e|-------------------s12-12------------------------------------
B|-15--15-15---15v---s12-12-14-12-----12------14--15-14--15----
G|-16v----16v---------------14-12b----12b--12-14b----14b-------
D|---------------------------------14--------------------------
A|-------------------------------------------------------------
E|-------------------------------------------------------------

e|---------------17ba-p15-------
B|-15------15-------------17s---
G|-14ba-12-14b------------------
D|------------------------------
A|------------------------------
E|------------------------------

Ahi esta todo, el solo toquenlo que suene bien sucio


ACORDES PARA GUITARRA

PIANO UKELELE
A
B
C
D
E5


COMENTARIOS

Aún no hay comentarios,

¡escribe el primero!

Escribe una pregunta, duda o comentario sobre esta canción, te responderemos a la brevedad.

Las más tocadas de Intoxicados

Toca una Canción al Azar de Intoxicados
A
B
C
D
E5