Un beso y una flor (Acordes)

Intoxicados

Subida por Papos

Compartir


Cambiar Cifrado
Americano Latino

Cambiar Tonalidad
-1 +1
Imprimir FAQ
+A
-A

Texto

Desplazamiento

Transportador

Color de Fondo

Archivos

-A
+A
E----------------------------------0------------
B------2-2-2-2-3-2-0-2-----2-2-2-2---3-2-0------
G-----------------------------------------------
D------------------------------------------4----
A---0-------------------0-----------------------
E--0-------------------0------------------------

E----------------------------------------0------
B-------------2-2-2-2-3-2-0-2----2-2-2-2---3-2-0
G-2-2-4-2---------------------------------------
D-----------------------------------------------
A----------0-------------------0----------------
E---------0-------------------0-----------------

E-----------------------------------------------
B--------------------2-7-7-7-5-7-3-5-5-5-7-2-0--
G---2-2-4-2-------------------------------------
D-4---------4-4---------------------------------
A-----------------------------------------------
E-----------------------------------------------

E-----------------------------------------------
B--2-7-7-7-5-7-7-7-3-5-7-2---2-7-7-7-5-7-3-5-5-5
G-----------------------------------------------
D-----------------------------------------------
A-----------------------------------------------
E-----------------------------------------------

E-----------------------------------------------
B-7-2-0---0-7-7-5-5-3-3-2-0-2-0-----------------
G-------------------------------4-2-4-----------
D-----------------------------------------------
A-----------------------------------------------
E-----------------------------------------------

E------------------------0-0-0-0-2--------------
B--2-2-0-2-0---------2-3-----------3-2-0--------
G------------2-2-1-2----------------------------
D-----------------------------------------------
A-----------------------------------------------
E-----------------------------------------------

E--0-2-2-2-0---0-----------------0-2-3-2-0------
B-2----------2---3-2-0-------2-3-----------3-2-3
G----------------------2-2-1--------------------
D-----------------------------------------------
A-----------------------------------------------
E-----------------------------------------------


Video Clip de Un beso y una flor


ACORDES PARA GUITARRA

PIANO UKELELE


TOP 20: Las más tocadas de Intoxicados


Toca una Canción al Azar de Intoxicados

Acordes

Cerrar

23.03

x

53