Soltero
Intrépidos
Acordes

Subida por eliasib


Más Versiones
Ver. 2 Ver. 3 Ver. 4 Ver. 5

Cambiar Cifrado
Americano Latino

Cambiar Tonalidad
-1 +1

Partir Pantalla Imprimir FAQ

+A
-A
Los Intrépidos
Soltero

Tabbed By
Julián Loor Maruri
[email protected]
Guayaquil - Ecuador

Inicia con un corto remate de bateria...

En la cancion todo el tiempo hay 2 guitarras...
Guitarra 1: clasico rasgueado de rock latino en clean
Guitarra 2: acordes bajos con distorsion

INTRO

Guitarra 1

F#m B E C#m

Guitarra 2

E|--------------------------------|
B|--------------------------------|
G|-----------4-----------------6--|
D|---4-------4--------2--------6--|
A|---4-------2--------2--------4--|
E|---2----------------0-----------|

Guitarra 1

F#m B E C#m

Guitarra 2

E|--------------------------------|
B|--------------------------------|
G|-----------4-----------------6--|
D|---4-------4--------2--------6--|
A|---4-------2--------2--------4--|
E|---2----------------0-----------|

Guitarra 1

A B

Guitarra 2

E|-------------|
B|-------------|
G|-------4444--|
D|-7-----4444--|
A|-7-----2222--|
E|-5-----------|

VERSO 1

F#m B E C#m
Quiero llegar a viejito contigo

F#m B E C#m
Que tu me des de comer

F#m B E C#m
Quiero que duermas tus noches conmigo

A B
Llevarte a la cama algo de beber


VERSO 2

F#m B E C#m
Como en los sueños somos tan felices

F#m B E C#m
No te compliques mi amor

F#m B E C#m
No soy tan viejo como todos dicen

A B
El proximo año sere un treinton


CORO

F#m B E C#m
Solteero yo quiero ser

F#m B E C#m
Solteero un dia mas

F#m B E C#m
Solteero tu sabes te quiero

A B
Y el proximo año sere cuarenton


FA#m SI E C#m
E|--------------------------------|
B|--------------------------------|
G|-----------4-----------------6--|
D|---4-------4--------2--------6--|
A|---4-------2--------2--------4--|
E|---2----------------0-----------|

FA#m SI E C#m
E|--------------------------------|
B|--------------------------------|
G|-----------4-----------------6--|
D|---4-------4--------2--------6--|
A|---4-------2--------2--------4--|
E|---2----------------0-----------|

A B

E|-------------|
B|-------------|
G|-------4444--|
D|-7-----4444--|
A|-7-----2222--|
E|-5-----------|

Aqui la cancion sube 1 tono y medio...todos los instrumentos al mismo ritmo


VERSO 3

Am D G Em
No estoy mintiendo tengo unos proyectos

Am D G Em
Que no me dejan pensar

Am D G Em
Dame un ratito y me escapo a la disco

C D
Porque a mis amigos voy a consultar

CORO

CORO

Am D G Em
Solteero yo quiero ser

Am D G Em
Solteero un dia mas

Am D G Em
Solteero tu sabes te quiero

A B
Y el proximo año sere cuarenton


SOLO

Am D G Em
E|----------------------------------------------|
B|-/17-17-17-17--15h17p15-13-12-----------------|
G|------------------------------14-12-14b16-12~-|
D|----------------------------------------------|
A|----------------------------------------------|
E|----------------------------------------------|

Am D G Em
E|-----------14-15-12h14p12-----|
B|-/17-17-17----------------15~-|
G|------------------------------|
D|------------------------------|
A|------------------------------|
E|------------------------------|

Am D G Em A B
E|---------------------------------------------------------------------------|
B|-/17-17-17-17--15h17p15-13-12------------------------12-13-14-15-----------|
G|------------------------------14-12-14b16-14-12-14b6-------------14b16-14~-|
D|---------------------------------------------------------------------------|
A|---------------------------------------------------------------------------|
E|---------------------------------------------------------------------------|

Aqui viene una parte q son coros pero aqui se los pongo en guitarra..

C D
E|--------------|
B|--------------|
G|-9---12--117-|
D|--------------|
A|-7---10---95-|
E|--------------|

E|----------------------|
B|----------------------|
G|----------------------|
D|----------------------|
A|-------10----12/14-12-|
E|-10h12----12----------|


C D
E|------------|
B|------------|
G|-9---12--11-|
D|------------|
A|-7---10---9-|
E|------------|

E|----------------|
B|-15/17-17-1715-|
G|-14/16-16-1614-|
D|----------------|
A|----------------|
E|----------------|


C D G D
E|------------|
B|------------|
G|-9---12--11-|
D|------------|
A|-7---10---9-|
E|------------|


F#m B E C#m
Solteero yo quiero ser

F#m B E C#m
Solteero un dia mas

F#m B E C#m
Solteero tu sabes te quiero

A B
Y el proximo año sere sesenton..

ETC.....ETC....ETC....


ACORDES PARA GUITARRA

PIANO UKELELE
F#m
B
E
C#m
A
F#m
B
Am
D
G
Em
C


COMENTARIOS

Aún no hay comentarios,

¡escribe el primero!

Escribe una pregunta, duda o comentario sobre esta canción, te responderemos a la brevedad.

Las más tocadas de Intrépidos

Toca una Canción al Azar de Intrépidos
F#m
B
E
C#m
A
F#m
B
Am
D
G
Em
C