Lo que debes evitar
Inuay
Acordes

Subida por rafag


Más Versiones
Ver. 2 Ver. 3

Cambiar Cifrado
Americano Latino

Cambiar Tonalidad
-1 +1

Partir Pantalla Imprimir FAQ

+A
-A
AFINACION RECOMENDADA: DropD

La canción completa va en: D#m B F# C# .
Solamente es cuestión de escuchar bien los cambios,
Los versos van rasgueados en Clean, y las demas partes con distor.

INTRO: PIANO & Bateria



INTRO: GUITARRAS

Gtr 1
D#m B F# C#
D#m B F# C#

Gtr 2. (se repite este riff durante todo el intro)
E--------6-7-6-----9-6-----7-6-----|--------6-7-6-----9-6-----7-6-----|
B--7-0---------0-------0-------0---|--7-0---------0-------0-------0---|
G------8---------8-------8-------8-|------8---------8-------8-------8-|
D----------------------------------|----------------------------------|
A----------------------------------|----------------------------------|
D----------------------------------|----------------------------------|


VERSO 1:

D#m B
ven, yo te contare
F#
que es lo que ella esconde
C# D#m
debajo de esa piel,
B F#
basta con describir
C#
llanto perpetuo,
D#m
es obscuro hace frio ven.


BREAK (igual que el INTRO):
GTR 1
D#m B F# C#
D#m B F# C#

GTR 2
E--------6-7-6-----9-6-----7-6-----|--------6-7-6-----9-6-----7-6-----|
B--7-0---------0-------0-------0---|--7-0---------0-------0-------0---|
G------8---------8-------8-------8-|------8---------8-------8-------8-|
D----------------------------------|----------------------------------|
A----------------------------------|----------------------------------|
D----------------------------------|----------------------------------|


VERSO 2:

D#m B F#
ya sé, son esos ojos y su boca
C#
que te hacen caer,
D#m B
y bien, su cuerpo espera
F# C#
esta noche no hay nada que hacer.


CORO 1:
D#m B
piénsalo otra vez,
F#
acabo de caer,
C#
no es necesario sígueme.
D#m B
puedes evitar
F#
todo ese llanto que
C#
pronto ocasionaras,


BREAK: (PIANO).

D#m B F# C#


PUENTE: Se toca el riff del intro,
la otra guitarra permanece en silencio.
acompaña el bajo, y la bateria.

GTR 2
E--------6-7-6-----9-6-----7-6-----|--------6-7-6-----9-6-----7-6-----|
B--7-0---------0-------0-------0---|--7-0---------0-------0-------0---|
G------8---------8-------8-------8-|------8---------8-------8-------8-|
D----------------------------------|----------------------------------|
A----------------------------------|----------------------------------|
D----------------------------------|----------------------------------|

D#m
puede ser
B F#
que hoy la vida este jugando con tu mente
C#
y con tu corazón,
D#m
en tus ojos puedo ver
B F#
no quieres darte cuenta ella dejó
C# D#m
en ti el delirio de persecución.


GTR 2
E--------6-7-6-----9-6-----7-6-----|--------6-7-6-----9-6-----7-6-----|
B--7-0---------0-------0-------0---|--7-0---------0-------0-------0---|
G------8---------8-------8-------8-|------8---------8-------8-------8-|
D----------------------------------|----------------------------------|
A----------------------------------|----------------------------------|
D----------------------------------|----------------------------------|


CORO 2:

D#m B
piénsalo otra vez,
F#
acabo de caer,
C#
no es necesario sígueme.
D#m B
puedes evitar
F#
todo ese llanto que
C# D#m
pronto ocasionaras,

B F#
acabo de caer no es necesario

C#
no es necesario sígueme.
D#m B
puedes evitar
F#
todo ese llanto que
C# D#m
previo ocasione


ACORDES PARA GUITARRA

PIANO UKELELE
D#m
B
F#
C#


COMENTARIOS

Aún no hay comentarios,

¡escribe el primero!

Escribe una pregunta, duda o comentario sobre esta canción, te responderemos a la brevedad.

Las más tocadas de Inuay

Toca una Canción al Azar de Inuay
D#m
B
F#
C#