Kick
INXS
Acordes

Subida por Mariane397
Álbum: Kick ( 1987)



+A
-A

Bass-line in verse
    C#                        B
E:-----------------------------------------------------------------|
B:-----------------------------------------------------------------|
G:-----------------------------------------------------------------|
D:-----------------------------------------------------------------|
A:--4--4-2-4-6-4-2-4-4-2-4-6--2--2-0-2-4-2-0-2-2-0-2-4-------------|
E:-----------------------------------------------------------------|

    F#                        C#
E:-----------------------------------------------------------------|
B:-----------------------------------------------------------------|
G:-----------------------------------------------------------------|
D:-----------------------------------------------------------------|
A:----------------------------4--4-2-4-6-4-2-4-4-2-4-6-------------|
E:--2--2-0-2-4-2-0-2-2-0-2-4---------------------------------------|






(Sometimes you kick)
(Sometimes you get kicked)
(Sometimes you kick)

F#  A  E  B     F#  A  E  B(B\A B\A)  \-slide
Come on come on come on come on

C#            B
I look around unsatisfied
F#            
At what they're giving me
C#
Then I think to myself
C#
Is there someone else
B       F#
Who feels the same as me
C#
Do you feel the same baby

B A E F#

C#
When my back is broken
B
When the mountain moves away
F#
All the dreams and promises
C#
That we give
We give away

F#            A
Sometimes you kick
E             B
Sometimes you get kicked
F#            A
Sometimes you kick
E             B(B\A B\A)  \-slide
Sometimes you get kicked

E:---------------------------------------------------------------------|
B:-11-12-14(14)(14)~~-14\9h10-12---10-9-10-12-10-9-10-12-10-9-10-12-14-|
G:---------------------------------------------------------------------|
D:---------------------------------------------------------------------|
A:---------------------------------------------------------------------|
E:---------------------------------------------------------------------|

E:---------------------------------------------------------------------|
B:-14~-12--14--12--10--9--10--9--7----2b3-2-2b3-2---2-3-5-7-9-10-12-14-|
G:---------------------------------------------------------------------|
D:---------------------------------------------------------------------|
A:---------------------------------------------------------------------|
E:---------------------------------------------------------------------|

F#            A
Sometimes you kick
E             B
Sometimes you get kicked
F#            A
Sometimes you kick
E             B(B\A B\A)  \-slide
Sometimes you get kicked

Look ahead
But don't mix it up
Baby look ahead
To better days and better ways
Make peace with flesh and blood
Make peace with your love
Nothing more I could ask of you
In the end this is the truth

B A E F#

When my back is broken
When the mountain moves away
All the dreams and promises
That we give
We give away


Sometimes you kick
Sometimes you get kicked
Sometimes you kick
Sometimes you get kicked
Sometimes you kick
Sometimes you get kicked
Sometimes you kick
Sometimes you get kicked
Sometimes you kick
Sometimes you get kicked
Sometimes you kick
Sometimes you get kicked


ACORDES PARA GUITARRA

PIANO UKELELE
C#
B
F#
A
E


COMENTARIOS

Aún no hay comentarios,

¡escribe el primero!

Escribe una pregunta, duda o comentario sobre esta canción, te responderemos a la brevedad.

Las más tocadas de INXS

Toca una Canción al Azar de INXS
C#
B
F#
A
E