Bajo la palmera (Isaac Albeniz) Acordes



Cifrado |Americano| - |Latino|

Cambiar Tonalidad
BAJAR UN TONO BAJAR UN SEMI-TONO SUBIR UN SEMI-TONO SUBIR UN TONO PARTIR PANTALLA EN VERTICAL PARTIR PANTALLA EN VERTICAL ¡Ayuda!
-A
+A
     S. S S. E  S S    S. S S. E  S S    S. S S. E  S S
E||-----------------|-----------------|-----------------|
B||-----------------|-------0--1--2---|-----------------|
G||--2--1-2-----2---|--1--2---------2-|--2--1-2-----2---|
D||----------4----4-|--2--------------|----------4----4-|
A||-----------------|-----------------|-----------------|
E||-----------------|--0--------------|-----------------|


S. S S. E S S H H H
-----------------|--5--------|--5--------|--5--------|
-------0--1--2---|--7--------|--7--------|--8--------|
--1--2---------2-|-----------|--5--------|--6--------|
--2--------------|--7--------|--7--------|--7--------|
-----------------|-----------|-----------|-----------|
--0--------------|-----------|-----------|-----------|


E E E E E E Q E E E E
-----10---9--10--|----------------|-----------------|
-----12--10--12--|--12--14--10----|----------8--10--|
-----11----------|--12--14--11----|-----11----------|
---------11--12--|----------------|-----10----------|
-----------------|--14--12--12----|------9--10--12--|
-----------------|----------------|-----------------|


E E E E S. S S. E E S. S S. E S S
----------7--10--|---9----9--7-----|-----------------|
------10--0------|-----10-------8--|-----------------|
--12-------------|--12----------6--|-------------2---|
--11---------12--|--11-------9-----|--7--6-7--4----4-|
--10--12---------|-----------------|-----------------|
-----------------|-----------------|-----------------|


S. S S. E S S S. S S. E S S S. S S. E S S H
-----------------|-----------------|-----------------|--5--------|
-------0--1--2---|-----------------|-------0--1--2---|--6--------|
--1--2---------2-|--2--1-2-----2---|--1--2---------2-|-----------|
--2--------------|----------4----4-|--2--------------|--7--------|
-----------------|-----------------|-----------------|-----------|
--0--------------|-----------------|--0--------------|-----------|


H H E E E E S S Q.
---7--------|---8--------|-----10--12--13--|-----10-12------|
--10--------|--10--------|-----------------|--13--0---------|
--10--------|------------|-----------------|----------------|
---9--------|--10--------|------9--10--12--|--------10------|
------------|------------|-----------------|--12------------|
------------|------------|-----------------|----------------|


E E E E S. S S. E E S. S S. E E H
-----------------|---0----9--10---8--|--13-12----10--9--|------------|
-----12--10------|-----10------------|--12----12--------|--10--------|
-----10------10--|-------------------|--13-------13-----|---9--------|
------9----------|--10-------12--10--|-----------12-----|--10--------|
---------12---8--|--12---------------|------------------|------------|
-----------------|---0---------------|---0--------------|------------|


S. S S.E E S. S S. Q E E E S S
----------6--10--|--13-12----------|-------------12----|
-----8-10-8------|--12----14-12----|---------15--13-15-|
----------7------|-----------------|-----14--15-----15-|
----------8------|-----------14----|-----15------------|
-----------------|-----------------|-------------------|
-----------------|-----------------|-------------------|


S S Q. S. S S. S. S S. S. S S. Q
--------12------|--------------10-13-|--17-15----------|
--14-15-14------|--------10-11-------|--------17-------|
--14-16---------|-----12-------------|-----------15----|
----------------|--------------------|-----------14----|
----------------|--------------------|-----------------|
----------------|--------------------|-----------------|


S. S S. E E H H H H
-------------------|-----------|--5--------|--5--------|--5--------|
-------------------|-----------|--7--------|--7--------|--8--------|
-----14------------|-----------|-----------|--3--------|--6--------|
-----15-15-12------|--7--------|--7--------|--7--------|--7--------|
--------13-----13--|--0--------|-----------|-----------|-----------|
-------------------|--9--------|-----------|-----------|-----------|


E E E E E E Q E E E E
-----10---9--10--|-------9--------|-----------------|
-----12--10--12--|--12--10--10----|----------8--10--|
-----------------|--12------11----|-----11----------|
-----12--11--12--|------11--------|-----10----------|
-----------------|--14------12----|------9--10--12--|
-----------------|----------------|-----------------|


E E E E S. S S. S S S S S. S S. E S S
----------7--10--|---9----9--7-------|-----------------|
------10--0------|-----10--------8---|-----------------|
--12-------------|--12-----------6---|-------------2---|
--11---------12--|--11-------9-------|--7--6-7--4----4-|
--10--12---------|-------------------|-----------------|
-----------------|-------------------|-----------------|


S. S S. E S S S. S S. E S S S. S S. E S S H
-----------------|-----------------|-----------------|--5--------|
-------0--1--2---|-----------------|-------0--1--2---|--6--------|
--1--2---------2-|--2--1-2-----2---|--1--2---------2-|-----------|
--2--------------|----------4----4-|--2--------------|--7--------|
-----------------|-----------------|-----------------|-----------|
--0--------------|-----------------|--0--------------|-----------|


H H E E E E S S Q.
---7--------|---8--------|-----10--12--13--|-----10-12------|
--10--------|--10--------|-----------------|--13--0---------|
--10--------|------------|-----------------|----------------|
---9--------|--10--------|------9--10--12--|--------10------|
------------|------------|-----------------|--12------------|
------------|------------|-----------------|----------------|


E E E E S. S S. E E S. S S. E E H
-----------------|---0----9--10---8--|--13-12----10--9--|------------|
-----12--10------|-----10------------|--12----12--------|--10--------|
-----10------10--|-------------------|--13-------13-----|---9--------|
------9----------|--10-------12--10--|-----------12-----|--10--------|
---------12---8--|--12---------------|------------------|------------|
-----------------|---0---------------|---0--------------|------------|


S. S S.E E S. S S. Q E E E S S
----------6--10--|--13-12-9--------|---------10--12-10-|
-----8-10-8------|--11-------11----|-----10--11--13-11-|
----------7------|------------9----|-----10------------|
----------8------|-----------------|-------------------|
-----------------|-----------------|-------------------|
-----------------|-----------------|-------------------|


S S Q. S. S S. S. S S. S. S S. Q
---9-10-12------|--------------10-13-|--17-15----------|
--10-12-14------|--------10-11-------|--------17-------|
----------------|-----12-------------|-----------15----|
----------------|--------------------|-----------14----|
----------------|--------------------|-----------------|
----------------|--------------------|-----------------|


S. S S. E E H S. S S. E E S T S S. E E
-------------------|-----------|-----0-------9--|--7-9-5----0-----|
-------------------|-----------|-------7--9-----|--------7--------|
-----14-11---------|-----------|--7-------7-----|--6--------6-----|
-----------12------|--7--------|--6-------------|-----------------|
--------13-13--13--|--0--------|----------7-----|--0--------7-----|
---------------13--|--9--------|--7----------0--|--------------0--|


S. S S. S. S S. S T S S. E E S. S S. E E S. S S. Q
-------0-----4-5--|--4-5-2----0-----|-------------2--|--0------------|
----------7-------|--------2--------|-----0-0--2--2--|-----3----3----|
-----7----7-------|--6--------------|-----2-0--2--2--|--3----3--2----|
-----6------------|-----------------|----------------|---------------|
----------7-------|--------------0--|----------------|---------------|
--7----------0----|--5--------------|----------------|---------------|


S. S S. E E S S E Q S S. S. E E S S. S. E E
----------------|--------------|----0--2--4--9--|--7-9-----0-----|
----------0-----|--0-2---------|--3-------3-----|-------7--------|
-------1--1--1--|------2--2----|--1-------------|--6-9-----6-----|
-----0----0-----|--------------|----------2-----|----------------|
----------------|--------------|--2-------------|--0-------7-----|
--0-------------|--------------|-------------0--|-------------0--|


S. S S. E E S T S S. E E S. S E E S. S. S Q S.
-----0-------9--|--7-9-5----0-----|----------2--0--|---------------|
-------7--9-----|--------7--------|--0--0-2--2-----|--3----3-------|
--7-------7-----|--6--------6-----|--2--0-2--2--3--|-----3-2-------|
--6-------------|-----------------|----------------|---------------|
----------7-----|--0--------7-----|----------------|---------------|
--7----------0--|--------------0--|----------------|------------0--|


S. S E E S T T E Q S. S. S S. E E
-----------------|---------------|-----3-7--10--15--|
-------0-----0-2-|--L------------|------------------|
-----1-1--1------|----2--2-------|--------------16--|
--0----0---------|---------------|------------------|
-----------------|---------------|------------------|
-----------------|---------------|------------------|


S. S S. Q S. S S.E E S. S S. Q
--14-------------|-------------0--|--10-------17----|
-----14-14-------|----------8--0--|--10-10-10-------|
-----------11----|-----9-11----0--|--11-11-11-------|
-----------11----|----------------|-----------------|
-----------------|----------------|-----------------|
-----------------|----------------|-----------------|


S. S S. E E S. S S. E E S. S S. E E
----------------0--|--13-12----10--9--|-----------10--9--|
---------------11--|--------11--------|--11-10-11--------|
-----------12--12--|------------------|------------------|
--------12---------|------------------|------------------|
-----13------------|------------------|------------------|
-------------------|------------------|------------------|


T T T T Q E S. S S.E S S S. S S. E S S
-----9---------------|------------------|-----------------|
--11-----11-10-------|------------------|-------0--1--2---|
---------------------|------------------|---------------2-|
---------------------|--------------7---|--6--7-----------|
---------------------|--12-11-12-9----9-|--7--------------|
---------------------|------------------|--0--------------|


S. S S. E S S S. S S. E S S H H
-----------------|-----------------|--5--------|------------|
-----------------|-------0--1--2---|--7--------|--10--------|
--2--1-2-----2---|--1--2---------2-|-----------|--12--------|
----------4----4-|--2--------------|--7--------|---8--------|
-----------------|-----------------|-----------|--12--------|
-----------------|--0--------------|-----------|------------|


H E E E E E E Q E E E E
------------|-----10---9--10--|-------9--------|-----------------|
--10--------|-----12--10--12--|--12--10--10----|----------8--10--|
--12--------|-----11----------|--12------11----|-----11----------|
--11--------|---------11--12--|------11--------|-----10----------|
--12--------|-----------------|--14------12----|------9--10--12--|
------------|-----------------|----------------|-----------------|


E E E E S. S S. E E H H
----------7--10--|---9----9--7-----|-----------|-----------|
------10--0------|-----10-------8--|--7--------|-----------|
--12-------------|--12----------6--|--7--------|-----------|
--11---------12--|--11-------9-----|-----------|-----------|
--10--12---------|-----------------|-----------|-----------|
-----------------|-----------------|-----------|-----------|


H E E S. S S. E E Q H
--12--------|--L--12--12-12-12-|---0--19--19----|--L--------|
--13--------|--L--13--13-13-13-|------20--20----|--L--------|
------------|------------------|----------------|-----------|
------------|------------------|--10------------|-----------|
------------|------------------|----------------|-----------|
------------|------------------|----------------|-----------|


Q Q E E S. S S. E E Q H
--10----10----|--L--10--10-12-10-|--10------------|------------|
--------------|------------------|----------10----|--12--------|
--------------|------------------|--11--11--------|------------|
---8-----8----|--L---8---8-11--8-|--12--12--12----|--12--------|
--------------|------------------|----------------|------------|
---0----------|------------------|----------------|------------|


E E S.S S. H E E S. S S. H
-------------8-6--|-----------|--------0--7-5--|-----------|
------------------|-----------|-----2----------|-----------|
----------10------|-----------|--0-------------|-----------|
------12----------|-----------|----------------|-----------|
--11--------------|-----------|----------------|-----------|
------------------|-----------|----------------|-----------|


E E S. S S. S. S S. E E S. S S. E S. T H
-----------3-2--|-------0--9--7--|--7--5----3--2--2-|-----------|
--------4-------|-----3----------|-------5----------|--3--------|
-----2----------|-----1----------|-------6----------|-----------|
----------------|----------------|------------------|-----------|
--2-------------|----------------|------------------|-----------|
----------------|--0-------------|------------------|-----------|


E. S E E E. S E E E. S E E
--27--------------|--26--------------|--27--------------|
------------------|------------------|------------------|
------------------|------------------|------------------|
---0------17------|---0------16------|---0------17------|
------------------|------------------|------------------|
-------17-----17--|-------17-----17--|-------17-----17--|


E. S E E E. S E E E. S E E
--26--------------|--15-----15------|--14-----------|
------------------|-----------------|---------------|
------------------|-------------14--|---------------|
---0------16------|---0-------------|---0-----0-----|
------------------|-------0---------|-------0----0--|
-------17-----17--|-----------------|---------------|


E. S E E E. S E E T T T E T Q
--15-----15------|--14--------------|--12-14---12--L-10----|
-----------------|------------------|----------------------|
-------------14--|--------------11--|----------------------|
---0-------------|---0--------------|----------------------|
-------0---------|-------11-12------|----------------------|
-----------------|------------------|----------------------|


E. S E E T T T E T Q H
--14--------------|--12-14---12--L-10----|--14--------||
------------------|----------------------|--15--------||
--------------11--|----------------------|--14--------||
---0--------------|----------------------|------------||
-------11-12------|----------------------|------------||
------------------|----------------------|------------||



Toca una Canción al Azar de Isaac Albeniz



ACORDES PARA GUITARRA - ACORDES PARA UKELELE





Esta canción ya tiene 3 comentarios... ¿y tu que opinas?

Escribe un comentario o pregunta sobre esta canción




Más canciones de Isaac Albeniz

  • Bajo la palmera
  • Siguiente


    ABRIR ACORDES

    Nuestro servidor se demoró 0.01 segundos en generar esta página. Eso fue realmente muy rápido!