Digitais
Isabella Taviani
Acordes

Subida por Ezequiel
Álbum: Isabella Taviani ( 2003)



Otras Versiones
Ver. 2

Cambiar Cifrado
Americano Latino

Cambiar Tonalidad
-1 +1

Partir Pantalla Imprimir FAQ

+A
-A
Mudar para Português
[Intro] D  Bm  G

e|-------------------------------|
B|-------------------------------|
G|--------9-9h117---------------|
D|--11/12----------10/11-12-9~~--| 3X
A|-------------------------------|
E|-------------------------------|

e|----------------------------------|
B|--------------------------9/10~~--|
G|--------9-9h117------------------|
D|--11/12----------10/11-12---------|
A|----------------------------------|
E|----------------------------------|

D9 D7M B9 Bm7
Eu tava aqui tentando não pensar no seu sorriso
D9 D7M B9 Bm7
Mas me peguei sonhando com sua voz ao pé do ouvido
G C7/9
E te liguei
D9 D7M B9 Bm7
Me encontro tão ferida, mas te vejo ai também em carne viva
D9 D7M
Será que não tem jeito?
B9 Bm7 G Gm
Esse amor ainda nem nasceu direito pra morrer assim

Bm Bm7M Bm7 Bm6
Se você pudesse ter me ouvido um pouco mais
Bm Bm7M Bm7 Bm6
Se você tivesse tido calma pra esperar
G Gm
Se você quisesse poderia reverter
Bm Bm7M Bm7 Bm6
Se você crescesse e então se desculpasse
G C7
Mas se você soubesse o quanto eu ainda te amo

É que eu não posso mais

D9 D7M B9 Bm7
Não vou voltar atrás
G F#7
Raspe dos seus dedos minhas digitais
D9 D7M B9 Bm7
Não vou voltar atrás
G C7/9 D9
Apague da cabeça o meu nome, telefone e endereço
D7M B9 Bm
Não vou, eu não vou voltar atrás
G Gm6 D9
Arranque do teu peito o meu amor cheio de defeitos

e|-------------------------------|
B|-------------------------------|
G|--------9-9h117---------------|
D|--11/12----------10/11-12-9~~--|
A|-------------------------------|
E|-------------------------------|

e|----------------------------------|
B|--------------------------9/10~~--|
G|--------9-9h117------------------|
D|--11/12----------10/11-12---------|
A|----------------------------------|
E|----------------------------------|

D9 D7M B9 Bm7
Me mata essa vontade de querer tomar você num gole só

D9 D7M B9 Bm7 G
Me dói essa lembrança das suas mãos em minhas costas sob o sol da
C7/9
manhã
D9 D7M B9 Bm7
Você já me dizia: conheço bem as suas expressões
D9 D7M B9 Bm7 G
Você já me sorria ao final de todas as minhas canções
F#7
Então por que?

Refrão.

ACORDES PARA GUITARRA

PIANO UKELELE
D
Bm
G
D9
Dmaj7
B9
Bm7
C9
Gm
Bmmaj7
Bm6
C7
F#7
Gm6



COMENTARIOS

Aún no hay comentarios,

¡escribe el primero!

Escribe un comentario o pregunta sobre esta canción


TOP 20: Las más tocadas de Isabella Taviani

Ver más

Toca una Canción al Azar de Isabella Taviani
D
Bm
G
D9
Dmaj7
B9
Bm7
C9
Gm
Bmmaj7
Bm6
C7
F#7
Gm6

Nuestro servidor se demoró 0.06 segundos en generar esta página. Eso fue realmente muy rápido!