Como Nunca Antes (Acordes)

Isadora Pompeo

Subida por julianachparro

Compartir


Cambiar Cifrado
Americano Latino

Cambiar Tonalidad
-1 +1
Imprimir FAQ
+A
-A

Texto

Desplazamiento

Transportador

Color de Fondo

Archivos

TONALIDAD, TAMAÑO, CIFRADO, SCROL.

Nos renovamos: Ahora puedes cambiar TODO haciendo clic en ICONO de la Guitarra () que aparece en la parte inferior de esta página.


LETRA CON ACORDES

[Intro] A  F#m  C#m  G#m

[Primeira Parte]

           A
Eu ouvi o som
             F#m
Do rei a entrar
               C#m
E eis que ele vem
              G#m
Com fogo batizar

[Pré-Refrão]

        A         F#m
Vai surgir, algo novo
              C#m
Como flecha, vem rasgar
            G#m
O meu interior

[Refrão]

       A
Então vem, como nunca veio antes
   F#m
E vem como nunca veio antes
   C#m                          G#m
E vem como nunca veio antes, e vem

       A
Então vem, como nunca veio antes
   F#m
E vem como nunca veio antes
   C#m                          G#m
E vem como nunca veio antes, e vem

[Solo] A  F#m  C#m  G#m

E|------------------------------------------|
B|--5-4-------------------------------------|
G|------6-4--13-11-13-13-11-13-------13-11--|
D|-----------------------------11-11--------|
A|------------------------------------------|
E|------------------------------------------|

E|-----------------------9b-----------------|
B|--------------12-------12b13r12-12--------|
G|--13-13-11-13----13----------------11~----|
D|------------------------------------------|
A|------------------------------------------|
E|------------------------------------------|

E|--12b-------------------------------------|
B|--15b16r15--12~---------------------------|
G|------------------------------------------|
D|------------------------------------------|
A|------------------------------------------|
E|------------------------------------------|

[Primeira Parte]

           A
Eu ouvi o som
             F#m
Do rei a entrar
               C#m
E eis que ele vem
              G#m
Com fogo batizar

[Pré-Refrão]

        A         F#m
Vai surgir, algo novo
              C#m
Como flecha, vem rasgar
            G#m
O meu interior

        A         F#m
Vai surgir, algo novo
              C#m
Como flecha, vem rasgar
            G#m
O meu interior

[Refrão]

       A
Então vem, como nunca veio antes
   F#m
E vem como nunca veio antes
   C#m                          G#m
E vem como nunca veio antes, e vem

       A
Então vem, como nunca veio antes
   F#m
E vem como nunca veio antes
   C#m                          G#m
E vem como nunca veio antes, e vem

[Ponte]

                A
Não me deixe ficar
             F#m
Sem o teu tocar
             C#m
Não me deixe ir
           G#m
Sem te sentir

                A
Não me deixe ficar
             F#m
Sem o teu tocar
             C#m
Não me deixe ir
           G#m
Sem te sentir

[Refrão]

       A
Então vem, como nunca veio antes
   F#m
E vem como nunca veio antes
   C#m                          G#m
E vem como nunca veio antes, e vem

   A
E vem, como nunca veio antes
   F#m
E vem como nunca veio antes
   C#m                          G#m
E vem como nunca veio antes, e vem

[Ponte]

                A
Não me deixe ficar
             F#m
Sem o teu tocar
             C#m
Não me deixe ir
           G#m
Sem te sentir

                A
Não me deixe ficar
             F#m
Sem o teu tocar
             C#m
Não me deixe ir
           G#m
Sem te sentir

Video Clip de Como Nunca Antes


ACORDES PARA GUITARRA

PIANO UKELELE
A
F#m
C#m
G#m


TOP 20: Las más tocadas de Isadora Pompeo


Acordes

Cerrar
A
F#m
C#m
G#m

13.27

x

122