Abram Os Portões (Acordes)

Israel Subirá

Subida por 5Intrepid

Compartir


Cambiar Cifrado
Americano Latino

Cambiar Tonalidad
-1 +1
Imprimir FAQ
+A
-A

Texto

Desplazamiento

Transportador

Color de Fondo

Archivos

TONALIDAD, TAMAÑO, CIFRADO, SCROL.

Nos renovamos: Ahora puedes cambiar TODO haciendo clic en ICONO de la Guitarra () que aparece en la parte inferior de esta página.


LETRA CON ACORDES

[Intro] Bm  A4  Bm  A4

     Bm                      A4 
E|----------------------------------------------------|
B|-----3-----3-----3-----3-----3-----3------3----3----|
G|----4-4---4-4---4-4---4-4---2-2---2-2----2-2--2-2---|
D|---------4-----------4-----------2-----------2------|
A|--2------------2-----------0------------0-----------|
E|----------------------------------------------------|


Bm            
Abram os portões
              A4
Abram os portões 
        Bm                
Pra que entre o rei da gloria
      A4     
Abram os portões 

Bm
Dele é o céu 
          A4
Dele é o mar 
Bm
   Dele é a terra 
A4
   E o que nela há 

       Bm
Quem é esse? 
       D    
Quem é esse? 
      A                         
As montanhas se escondem
    Em                   Bm    A
Os montes são trazidos ao chão

       Bm
Quem é esse? 
       D    
Quem é esse? 
       A    
O seu rosto como o sol 
     Em                     Bm  A 
Seus olhos um farol na escuridão 

       Bm
Quem é esse? 
       D    
Quem é esse? 
         A9
Que não cabe no universo 
 Em                    Bm   A   
Mas habita em meu coração 

                 Bm              
Ele é o rei da glória
               D
Ele é rei da glória 
         A                        Em
Que pra sempre vai reinar e em justiça
              Bm    A
Governar o seu povo 
      
                 Bm              
Ele é o rei da glória
               D
Ele é rei da glória 
         A                         Em
Que pra sempre vai reinar e em justiça
              Bm    A
Governar o seu povo          

Bm 
Abram os portões 
              D    
Abram os portões 
Em           Bm
Abram os portões 
             A  
Abram os portões 

Bm  D  Em  Bm  A )

       Bm     
Ele é santo 
      D
Ele é rei 
       A   Em  
Tu és digno
             Bm 
Pra sempre amém?

     Bm                      A4 
E|----------------------------------------------------|
B|-----3-----3-----3-----3-----3-----3------3----3----|
G|----4-4---4-4---4-4---4-4---2-2---2-2----2-2--2-2---|
D|---------4-----------4-----------2-----------2------|
A|--2------------2-----------0------------0-----------|
E|----------------------------------------------------|

Video Clip de Abram Os Portões


ACORDES PARA GUITARRA

PIANO UKELELE
Bm
A4
D
A
Em
A9


TOP 20: Las más tocadas de Israel Subirá


Acordes

Cerrar
Bm
A4
D
A
Em
A9

13.02

x

174