A Galera
Ivete Sangalo
Acordes

Subida por TGOITO
Álbum: As super novas ( 2005)



Otras Versiones
Ver. 2

Cambiar Cifrado
Americano Latino

Cambiar Tonalidad
-1 +1

Partir Pantalla Imprimir FAQ

Ver solo la LETRA

+A
-A
Mudar para Português
LETRA CON ACORDES

Intro: (B E)

Tablatura da Introdução: Esta intro é feita pelo contrabaixo e teclado. Abaixo segue a transcrição para guitarra/violão. A intro é bem marcante na música. Escutem a música e depois tentem tocá-la, não é difícil. Os acordes que estão acima da tablatura são a base da música durante a execução da introdução. Boa sorte!!!

E
e|------------------------------------|
B|------------------------------------|
G|------------------------------------|
D|------------------------------------|
A|--9-7-6----9-6------9-7-6----9-6----|
E|--------7------7----------7------7--|

B
e|------------------------------------|
B|------------------------------------|
G|------------------------------------|
D|--9-7-6----9-6------9-7-6----9-6----|
A|--------7------7----------7------7--|
E|------------------------------------|

B E
Fevereiro, alegria
B E
Muita festa, todo dia
F# E
Quem pode pode, quem não pode se sacode
B
Quando a banda passa
F# E B
O som da banda empurrando todo mundo no swing massa
B E F#
E a galera... Ôôô!

B E
A galera tá no clima
B E
Mão embaixo, mão em cima
F# E
Quem pode pode, quem não pode se sacode
B
Quando a banda passa
F# E B
O som da banda empurrando todo mundo no swing massa
B E F#
E a galera... Ôôô!

B E
Desce desce bem juntinho
B E
Sobe sobe bonitinho
F# E B
E essa dança todo mundo tá jogando no meio da praça
F# E B
O som da banda empurrando todo mundo no swing massa
B E F#
E a galera... Ôôô!

REPETE TUDO

Mila, eu te amo!!!

ACORDES PARA GUITARRA

PIANO UKELELE
B
E
A
F#


COMENTARIOS

Aún no hay comentarios,

¡escribe el primero!

Para hacer una pregunta o dejar un comentario sobre esta canción, debes estar LOGUEADO

Las canciones más tocadas de Ivete Sangalo

Toca una Canción al Azar de Ivete Sangalo
B
E
A
F#

Nuestro servidor se demoró 0.05 segundos en generar esta página. Eso fue realmente muy rápido!