Completo
Ivete Sangalo
Acordes

Subida por Arturoposada
Álbum: Multishow registro: Pode entrar ( 2009)



Otras Versiones
Ver. 2

ENTRENA TU OÍDO MUSICAL CON ESTE JUEGO. ¿QUÉ ACORDE ES?. CLIC AQUÍ PARA JUGAR

Cambiar Cifrado
Americano Latino

Cambiar Tonalidad
-1 +1

Partir Pantalla Imprimir FAQ

Ver solo la LETRA

+A
-A
Mudar para Português
LETRA CON ACORDES
[Intro]  A  F#m  D   E

E|-------------------------------------------------------------------|
B|-10--10--10-----------10--10--10-----------10--10--10--------------|
G|---9---7---6p7h6--6-----9---7---6p7h6--6-----9---7---6p7h6--6-s7s9-|
D|----------------9--------------------9--------------------9--------|
A|-------------------------------------------------------------------|
E|-------------------------------------------------------------------|

E|---------------------------------|
B|---------------------------------|
G|--6s7--9-9-----------------------|
D|--7----7-7-----------------------|
A|---------------------------------|
E|---------------------------------|

Bm E
É tão bom ter alguém por perto
Bm E
Pra você se sentir completo
F#m B
Ter a mão que te leva pro futuro
D E
Vislumbrando um horizonte seguro

Bm E
É tão bom viajarmos juntos
Bm E
E viver aproveitando tudo
F#m B
Amanhã vai ser melhor que hoje
D E A
Novos sonhos ao amanhecer

G D/F# A
Imagino milhões de sorrisos
G D/F# A
Cada um com seu jeito de ser
G D/F# A
Mas ligados no mesmo destino
G D/F# E
Com amor feito eu e você

F#m D
O céu e o mar, a lua e a estrela
E A
O branco e o preto, tudo se completa de algum jeito
F#m
Homem, mulher
D E
A faca e o queijo, o incerto e o perfeito
A
Tudo se completa de algum jeito

ACORDES PARA GUITARRA

PIANO UKELELE
A
F#m
D
E
Bm
B
G
D/F#


COMENTARIOS

Aún no hay comentarios,

¡escribe el primero!

Para hacer una pregunta o dejar un comentario sobre esta canción, debes estar LOGUEADO

Las canciones más tocadas de Ivete Sangalo

Toca una Canción al Azar de Ivete Sangalo
A
F#m
D
E
Bm
B
G
D/F#

Nuestro servidor se demoró 0.07 segundos en generar esta página. Eso fue realmente muy rápido!