Viernes por la noche
Jade
Acordes

Subida por aleja2313


Más Versiones
Ver. 2 Ver. 3 Ver. 4 Ver. 5 Ver. 6

Cambiar Cifrado
Americano Latino

Cambiar Tonalidad
-1 +1

Partir Pantalla Imprimir FAQ

+A
-A
INTRO: G Am G Am C D

G
Viernes en la noche y nada puede ir mal
Am
ya viví esta semana como un inmortal
G
guardando este deseo como un animal
Am C D
esto va a suceder porque al fin voy a beber

G
Saliendo del boliche son las doce y diez
Am
no sigo mi cabeza solo veo mis pies
G
me encuentro en un lugar que sabe dios dónde es
Am C D
ya todo me iba mal cuando al fin la vi llegar

ESTE ES EL BAJO DE LAS NOTAS DURANTE LA PARTE LENTA,
SUAVE O COMO LA LLAMES:

DURANTE G:
G -----------------------------
D ------0------0------0------0-
A ----2------2------2------2---
E -3------3------3------3------

DURANTE Am
G -----------------------------
D ------2------2------2------2-
A -0--3---0--3---0--3---0--3---
E -----------------------------

DURANTE C:
G ------0------0-
D ----2------2---
A -3------3------
E ---------------

DURANTE D
G ------2------2-
D -0--4---0--4---
A ---------------
E ---------------

G
Qué manera de bailar...
Am
qué manera de besar...
C
con tu cuerpo despertar
D G
contigo alucinar y volver a soñar


Qué manera de bailar...etc

G
Tres de la mañana y al fin me puedo parar
Am
hay algo en mi cabeza pa´ que no vaya a dudar
G
por más que lo deseo no lo puedo evitar
Am C D
sus piernas son de fuego y su mirada de glacial

G
Me acerco a duras penas sin saber qué hablar
Am
disculpe señorita quisiera bailar
G
ella solo voltea y se me pone a mirar
Am C D
cuando tomo mi mano y nos fuimos de aquel lugar

G
Qué manera de bailar...
Am
qué manera de besar...
C
con tu cuerpo despertar
D G
contigo alucinar y volver a soñar


Qué manera de bailar...etc

G
Diez de la mañana en plena plaza principal
Am
no tengo ni reloj ni dinero ni mi collar
G
por más que hago un intento no me puedo acordar
Am C D
solo tomó mi mano y nos fuimos de aquel lugar

E -------------------------------------------------------------------
B -10-8-7-8-7-----10-8-7-8-7---------10-8-7-8-7-----10-8-7-8-7-------
G -------------7-------------7-7s9---------------7-------------7-7s9-
D -------------------------------------------------------------------
A -------------------------------------------------------------------
E -------------------------------------------------------------------

E ---8-8-------10-10----10-8-7------------
B -8-------10--------10--------10-8-7-----
G ------------------------------------9-7-
D ----------------------------------------
A ----------------------------------------
E ----------------------------------------

E ----12----10----12----10------------------
B -12----12----12----12---------------------
G -------------------------5--5s10----8-7---
D ----------------------------------------9-
A ------------------------------------------
E ------------------------------------------

E ----12----10----12----10-------------------------------
B -12----12----12----12----------------------------------
G -------------------------5--5s10---87778777877787778s9-
D -------------------------------------------------------
A -------------------------------------------------------
E -------------------------------------------------------

E -8-7-------------------
B -----10-8-8h10-8-7-----
G -------------------9-7-
D -----------------------
A -----------------------
E -----------------------


LA ´s´ QUIERE DECIR QUE DEBES ARRASTRAR DE UNA POSICIÓN A
OTRA LA ´h´ QUIERE DECIR QUE DEBES PASAR DE UNA POSICIÓN
A OTRA COLOCANDO OTRO DEDO DONDE DICE LA POSICIÓN
EN AMBAS DEBES TRATAR DE NO APAGAR EL SONIDO...


ACORDES PARA GUITARRA

PIANO UKELELE
G
Am
C
D


COMENTARIOS

Aún no hay comentarios,

¡escribe el primero!

Escribe una pregunta, duda o comentario sobre esta canción, te responderemos a la brevedad.

Las más tocadas de Jade

Toca una Canción al Azar de Jade
G
Am
C
D