Cabalgando (Acordes)

Jaf

Subida por Abudahmad35

Compartir


Cambiar Cifrado
Americano Latino

Cambiar Tonalidad
-1 +1
Imprimir FAQ
+A
-A

Texto

Desplazamiento

Transportador

Color de Fondo

Archivos

-A
+A
INTRO

  C                         G
e-8-5------------------------------
B-----8-6-5s3-3s5-3s5s3------------
G-----------------------5-2--------
D----------------------------------
A-----------------------------0-2--
E---------------------------3------


    C           G     F       C      D-3---3-2-0-
El viento le azota su cálida piel    A-3---------
    C            G     F       C      D-3---3-2---  Dm
son cortos sus años y puro su ser     A-3-------3-
             G          E-3-2-1  Dm
el monta su potro marrón
          G
y vive toda su ilusión

      C F G    E        Am
Cabalga-a-ando de sol a sol
   Dm        D/F#    G      F        C    E-8-5
y canta algo muy parecido a esta canción  B-----8-6p5

D-3-2-0 C  D-2-2s3s2

El río murmura su canto sin fin
el grito cascado del viejo crespin
el sol ilumina el hogar  E-0-1-2- [cambia]
la casa que hizo papa

Trabajando de sol a sol
cantándole algo parecido a esta canción  D-3-2-0 C [cambia]

Solo de violin (para guitarra)

C-G-F-C D-3---3-2-0- C-G-F-C D-3---3-2--- Dm
        A-3---------         A-3-------3-

e--------------------------------------------
B-------------------------------------8-10-8-
G-------0h2-0---------------------5-9--------
D-----2-----------0-3-5-8-15-15p3------------
A-2h3---------0h1----------------------------
E--------------------------------------------

e-----5s8-8s13-13-13p1--
B---3-------------------
G-3---------------------
D-----------------------
A-----------------------
E-----------------------



Dm               G          E-3-2-1 Dm
    el monta su potro marrón
          G
y vive toda su ilusión

      C F G    E        Am
Cabalga-a-ando de sol a sol
   Dm        D/F#    G      F        C
y canta algo muy parecido a esta canción
   F C  G  C      G   C
e-13-12-10-8-5-6-5-8-10-8-

FIN


Video Clip de Cabalgando


ACORDES PARA GUITARRA

PIANO UKELELE
C
G
F
D
Dm
E
Am
D/F#
A


TOP 20: Las más tocadas de Jaf


Toca una Canción al Azar de Jaf

Acordes

Cerrar
C
G
F
D
Dm
E
Am
D/F#
A

07.59

x

132