Soldado de fortuna
Jaf
Acordes

Subida por paloma180277


Más Versiones
Ver. 2 Ver. 3

Cambiar Cifrado
Americano Latino

Cambiar Tonalidad
-1 +1

Partir Pantalla Imprimir FAQ

+A
-A
Intro

E|---2-4-5-7-9-9-7-9-7----------------------|
B|---------------------10-9-12-10-9---------|
G|----------------------------------11-9-11-|
D|-4----------------------------------------|
A|------------------------------------------|
E|------------------------------------------|

Los acordes hasta el solo deben arpegiarse de la siguiente manera:


F#m E C#m A C# D B
E|----2--|----0--|-------|-------|-------|----2--|-------|
B|---2---|---0---|----5--|----2--|----6--|---3---|----4--|
G|--2----|--1----|---6---|---2---|---6---|--2----|---4---|
D|-4-----|-2-----|--6----|--2----|--6----|-0-----|--4----|
A|-------|-------|-4-----|-0-----|-4-----|-------|-2-----|
E|-------|-------|-------|-------|-------|-------|-------|

F#m
Te contaron mil historias,
E
Que hablan sobre mí,
F#m
A la espera del día
C#m
Sin rumbo que seguir
F#m
Al tomar tu mano y cantar por ti,
E
Creí escuchar tu voz,
F#m
Ven a mi lado y ámame
C#m
Y quise darte amor

A B F#m
Pero siento en mi los años
D E A
Y lo que he cantado ayer
C# F#m E
Suena a lo lejos, Como el son
A D
De un molino al girar A|-5-4- y pegar acorde siguiente
E|-----

Bm C#m F#m
Siempre voy a ser, soldado de fortuna


Solo

E|----------------5-7-7-7/9-9/12-12/14-14-9-7-5-7----|
B|-----5--7-7-5/7-5-7-7-7/9-9/12-12/14-14-9-7-5-7----|
G|-4/6----6-6-4/6------------------------------------|
D|-4/6-----------------------------------------------|
A|---------------------------------------------------|
E|---------------------------------------------------|

E|-7/9-9/12-12/14-14-12-9-7-9-9-9-7-5-7--------------|
B|-7/9-9/12-12/14-14-12-9-7-9-9-9-7-5-7-10-9-10-9----|
G|------------------------------------------------11-|
D|---------------------------------------------------|
A|---------------------------------------------------|
E|---------------------------------------------------|
F#m
Muchas veces he buscado
E
Algo nuevo para mí
F#m
Y he dormido solo y frío
C#m
Sin rumbo y sin ti
F#m
De repente creí verte
E
Parada frente a mí
F#m
Hoy todo es muy confuso
C#m
Y tu no estas aquí
A B F#m
Pero siento en mi los años
D E A
Y lo que he cantado ayer
C# F#m E
Suena a lo lejos, Como el son
A D
De un molino al girar
Bm C#m F#m
Siempre voy a ser, soldado de fortuna

F#m E
Suena a lo lejos
A D
Un molino que al girar
Bm C#m
Siempre voy a ser
F#m
Soldado de fortuna


A E
Siempre voy a ser
F#m
Soldado de fortuna


Final


E|-7-/-9-9-9-9-7----------------|
B|---------------10-9-7---------|
G|----------------------9-/-11--|
D|------------------------------|
A|------------------------------|
E|------------------------------|

////////////////// ¿Te Animas? Sube una canción a este sitio. //////////////////

ACORDES PARA GUITARRA

PIANO UKELELE
F#m
E
C#m
A
C#
D
B
Bm


COMENTARIOS

Aún no hay comentarios,

¡escribe el primero!

Escribe una pregunta, duda o comentario sobre esta canción, te responderemos a la brevedad.

Las más tocadas de Jaf

Toca una Canción al Azar de Jaf
F#m
E
C#m
A
C#
D
B
Bm