Corazón en llamas
Jaf
Acordes

Subida por PianistaYolla


Más Versiones
Ver. 2 Ver. 3 Ver. 4

Cambiar Cifrado
Americano Latino

Cambiar Tonalidad
-1 +1

Partir Pantalla Imprimir FAQ

+A
-A
Intro

A# F A# F A# F A# F
e-------1----------------1----------------1----------------1----------
B---1---1------------1---1------------1---1------------1---1----------
G-----2----------------2----------------2----------------2------------
D-----3----------------3----------------3----------------3------------
A---------------------------------------------------------------------
E---1----------------1----------------1----------------1--------------


A# F
Ella viaja sola
A# F C
Usa una remera y viejos jeans
Gm C
Y el bolso con prendas
A# F
Que en la mañana va a vestir


Dijo hasta mañana
A la mujer que la vio nacer
Y sin rumbo fijo
La carretera empezó a recorrer


C Gm
La inmensidad de su corazon
A# F
La impulso a volar
C Gm Dm
Y gotas amargas con forma de luz
A# C C* C
Ruedan sin cesar


A# F
Campos de nieve
A# F C
Padre trabajando el algodón
Gm C
Campos de tristeza
A# F
De pobreza y desolación


La inmensidad de su corazon
La impulso a volar
Y gotas amargas con forma de luz
Ruedan sin cesar


A# F
Corazón en llamas
Gm A# C
Que corres a la gran ciudad
A# F
Corazón en llamas
Gm A# F
Que crees en la libertad
A# F
Corazón en llamas
Gm A# C
Que fuiste fuerte al decir adiós
A# F
Corazón en llamas
Gm A# F F* F F*
Nadie vera caer tus lagrimas de amor


A# F
Tres esperanzas
A# F C
Miran como ella se aleja hoy
Gm C
A su pequeño hermano
A# F
Sus más preciados bienes le dejo


Giran y giran
Ruedas avanzan sin ceder
Inexorablemente
A comenzado a ser mujer


Solo

C - Dm - A# - F - C - Dm - A# - C

e---------------------------------------------------
B---------------------------------------------------
G-10S12-10-12-12S14-12s10-10S15-15--12-14-12-10-----
D----------------------------------------------10---
A---------------------------------------------------
E---------------------------------------------------

e-------------------------------------------------------------
B----------------------------------------15-13-13-13-13-13-13-
G-10S12-10-12-12S14-12-10-14-12-14-14S15----------------------
D-------------------------------------------------------------
A-------------------------------------------------------------
E-------------------------------------------------------------


Corazón en llamas....


FIN

C* F*

E-1 E-1
B-1 B-1
G-0 G-3
D-2 D-1
A-3 A-3
E-0 E-1

Un saludo a los chicos


ACORDES PARA GUITARRA

PIANO UKELELE
A#
F
C
Gm
Dm
C
F
E
B
G
D
A


COMENTARIOS

Aún no hay comentarios,

¡escribe el primero!

Escribe una pregunta, duda o comentario sobre esta canción, te responderemos a la brevedad.

Las más tocadas de Jaf

Toca una Canción al Azar de Jaf
A#
F
C
Gm
Dm
C
F
E
B
G
D
A