Deja que hable tu corazón
Jaf
Acordes

Subida por Kvarela97


Más Versiones
Ver. 2 Ver. 3

Cambiar Cifrado
Americano Latino

Cambiar Tonalidad
-1 +1

Partir Pantalla Imprimir FAQ

+A
-A
RIFF INTRO
A Dm A Dm E
e--12--10--9-------------------12--10--9---------------------
B-------------12--10----------------------12--10-------------
G---------------------10--------------------------10----9----
D------------------------------------------------------------
A------------------------------------------------------------
E------------------------------------------------------------


A
Mira hacia atrás
F#m E D
hay un lugar un punto en común
E A Dm E
para volver a empezar

A
Mira otra vez
F#m E D
la vieja foto que te erizo
E A A7
nuestra ilusión de amor

D E
Y es que nunca pense
C#m F#m
tener otra mujer
D E A A7
desde aquella noche en que te conocí

D E
Por aquella pasión
C#m F#m
que sentimos los dos
D D/F# E
hoy debes dejar que hable tu corazón yeah

RIFF
Dm E A
Deja que hable tu corazón

RIFF
Dm E A
Deja que hable tu corazón


A Bm
Quiero saber si es ahora el momento ideal
D/F# E A
el que espero hace tanto tiempo atrás

Hoy te propongo volver para recomenzar
y que el amor se lleve nuestra soledad

C#m F#m
Hoy tus ojos me verán
C#m E
hoy voy a saber
Bm D
SI MI destino es LA soledad
C#m F#m
o si a tu lado veré brillar
D D/F# E
un nuevo sol una oportunidad.

RIFF
Dm E A
Deja que hable tu corazón

RIFF
Dm E A
Deja que hable tu corazón


SOLO

A F#m
e------------------------------------------------------------------------
B------------------------------------------------------------------------
G------------------------------------------------------------------------
D-10h11-11-12-12s14-14-10h11-11-12s14-14-10h11-11-12-12s14-12-11-12-11-9-
A------------------------------------------------------------------------
E------------------------------------------------------------------------


E D/F# E A A7
e--------------------------3h5-4-5-6-7-8-9-10-12-9/5-5-------------------
B------------------------------------------------------------------------
G------------------------------------------------------------------------
D-7-9-11-9-7-6------6h7-7-----------------------------------------------
A------------------------------------------------------------------------
E------------------------------------------------------------------------


y es que nunca pense
tener otra mujer
desde aquella noche en que te conocí

Por aquella pasión
que sentimos los dos
hoy debes dejar que hable tu corazón.

RIFF
Deja que hable tu corazón
RIFF
Deja que hable tu corazón
RIFF
Deja que hable tu corazón
RIFF
Deja que hable tu corazón


ACORDES PARA GUITARRA

PIANO UKELELE
A
Dm
E
F#m
D
A7
C#m
D/F#
Bm
B
E
A


COMENTARIOS

Aún no hay comentarios,

¡escribe el primero!

Escribe una pregunta, duda o comentario sobre esta canción, te responderemos a la brevedad.

Las más tocadas de Jaf

Toca una Canción al Azar de Jaf
A
Dm
E
F#m
D
A7
C#m
D/F#
Bm
B
E
A