All I Have (Acordes)

James Gang

Full Álbum: Newborn (1975)
Subida por ronald777

Compartir


Imprimir FAQ
+A
-A

Texto

Desplazamiento

Transportador

Color de Fondo

Archivos

-A
+A
-------------------------------------------------------------------------------

                             ALL I HAVE - James Gang
-------------------------------------------------------------------------------
Tabbed by: Lezada
E-mail: [email protected]

    Bm  Dsus4add9   E   Esus4  G    A    Em
e|--2------0--------0----------3----0----0--|
B|--3------3--------0-----0----0----2----0--|
G|--4------0--------1-----2----0----2----0--|
D|--4------4--------2-----2----0----2----2--|
A|--2------0--------2-----2----2----0----2--|
E|------------------0-----0----3---------0--|


Intro:

Bm  Dsus4add9   E   Esus4   G   A   Em

Bm                 Dsus4add9  E         Esus4         
I've  heard  some   people    tell   me

G            A                 Em
They've been seeing you out at night

Bm          Dsus4add9    E      Esus4
But I don't believe    what they say

G         A                   Em
'Cause I know that just ain't right

Bm      Dsus4add9  E             Esus4
So many times      I've heard those lies

G         A             Em
Sometimes it's just about me

Bm              Dsus4add9     E      Esus4
But it's such a simple thing, you see

G      A                 Em
When a good love's going bad

Bm  Dsus4add9  E  Esus4
Ooooo

G   A   Em
Ohhhh

G  A                Bm
I thought I had the answers

G   A                       Esus4   E
But all that I have is this song


_____________

I did not find the lyrics, so parts of the lyrics here might be incorrect.
I appreciate corrections, contact by e-mail.

Please rate. Thank you.

Video Clip de All I Have


ACORDES PARA GUITARRA

PIANO UKELELE
Bm
E
Esus4
G
A
Em


TOP 20: Las más tocadas de James Gang


Toca una Canción al Azar de James Gang

Acordes

Cerrar
Bm
E
Esus4
G
A
Em

08.15

x

267