c ▷ AY AMOR: (Janette chao) Acordes para Guitarra, Piano & Ukelele

Ay Amor (Acordes)

Janette chao

Subida por Eder

Compartir


Imprimir FAQ
+A
-A

Texto

Desplazamiento

Transportador

Color de Fondo

Archivos

-A
+A
Album: VA - Ay Amor! Musica Original del Programa de Televisión 
Transcripcion: Christian Said 


Capo en el 2o. Traste

Intro
                                                                     A   E 
1|-0-----0-----0-----0-----0-----(0)2h--2-(2)0p--0-----0-----0------0---0--0-----
2|---0-----0-----0-----0-----0----------------------0-----0-----0----2---0----0---
3|-----1-----1-----1-----1-----1----------------------1-----1-----1--2---2------1-
4|-------------------------------------------------------------------2---2--------
5|-------------------------------------------------------------------0---1--------
6|-------------------------------------------------------------------0---0--------

                            A   E  ....(continua durante LA estrofa)
1|-0-----0-----0-----0------0---0--0-----
2|---0-----0-----0-----0----2---0----0---
3|-----1-----1-----1-----1--2---2------1-
4|--------------------------2---2--------
5|--------------------------0---1--------
6|--------------------------0---0--------


A  E 
     Te encuentro y de nuevo
A  E  
     Me inquieto y no puedo
A  E   C#m (Fill.1)    B 
     Fingir que da lo mismo
            A               B   B - A
     Tu presencia frente a mí
               B    A  E
     Frente a mí


A  E
     Miradas casuales
A  E
     Que aumentan latidos
A  E       C#m (Fill.1)    B  
     Y el tiempo se hace corto
            A             B   B - A
     Si te tengo junto a mí
              B     A  E
     Junto a mí


       C#m
Más no sé 
           B            A
Como explicarte de mi amor
        C#m             B
Como decirte que hace tiempo
      A            B
Me robaste el corazón
        E
Mi corazón


     A
Ay amor
           B          E
No sé que tiene tu mirar
           A
Que día a día
        B           E
Me conquista más y más
     A
Ay amor
          B          E
Cuanto daría por romper
        A
Ese misterio
          B           E
Que me atrapa sin querer
     A   B   C#m
Ay amooooor....



A  E
     Los días se alargan
A  E
     Cuando no te miro
A  E    C#m (Fill.1)       B
     Y busco  entre  mil  cosas
           A           B    B - A
     Una que hable de ti
              B    A  E
     Sólo de ti

        C#m 
Más no sé.....(Coro)


Fill.1

     C#m          B           A           B
1|----4-----4-----2-----2-----0-----0-----2--
2|-0--5-----------4-----4--4--2-----2-----4--
3|-1-----6-----6-----4-----------2-----2--4--
4|----------6-----------2-----------2--------
5|----4-----------2-----------0-----------2--
6|-------------------------------------------

Nota: 
1.-La intro continua incluso cuando empieza la estrofa, =slide p=pull up h=hammer etc 
2.-Fill.1 hay una pausa antes de el requinto
3.-Es la nueva versión de Janette Chao (mas agudo que la versión de Ana Gabriel, 
por ello el capo); escucha la 
   canción primero (éste tema viene en el cd del tv show Ay Amor!) 


PD: Un viejo gran tema, con una voz fresca y dulce ademas llena de talento. 
Sorry, sigo sacando rolas tristes :/
trataré de cambiar (aunque muy en el fondo no sea asi)...
Dudas, Quejas, Sugerencias, Opiniones a->  
said_2099@hotmail.com 
yo tmb me pregunto: ay amor..no se que tiene tu mirar ..¿?.... :(


Video Clip de Ay Amor


ACORDES PARA GUITARRA

PIANO UKELELE
A
E
A
C#m
B


TOP 20: Las más tocadas de Janette chao


Acordes

Cerrar
A
E
A
C#m
B

03.03

x

100