c ▷ CANCIÓN DE CUNA: (Jauría) Acordes para Guitarra, Piano & Ukelele

Canción de cuna (Acordes)

Jauría

Full Álbum: Libre o muerto (2013)
Subida por peigallo

Compartir


Imprimir FAQ
+A
-A

Texto

Desplazamiento

Transportador

Color de Fondo

Archivos

-A
+A
RIFF:

1/-----------------------/
2/-----------------2/(4)-/
3/--1-1-1---0-0----------/
4/--2-2-2---1-1--1-------/
5/-----------------------/
6/-----------------------/



RIFF

¿Quién soy?, ¿qué estóy buscando en medio de la ciudad tan a oscuras?

¿Quién soy? ¿quién creo ser guiando a la humanidad tan a oscuras?

soy el bien, soy el mal
                       MI5
soy un dios, soy satan


LA5                                     MI5
Soy la luz divina, soy el agua en el desierto

LA5
soy el alma viva soy un sueño eterno

MI      MIm    MI     MIm
soy tu dios    soy satan

MI      MIm       MI      MIm      MI    MI5
soy el bien y el mal  el bien y el mal


SOLO:

    SI5            LA5                  MI5        SI5
1/-----------------------------------------------------/
2/--------------------------------------10-9-10-9------/
3/--11-9-11-9-------------------------------------9-11-/
4/------------9----12-11-12-11-------------------------/
5/-----------------------------12----------------------/
6/-----------------------------------------------------/

    RE5            LA5              MI5
1/-----------------------------------------------------/
2/-----------------------------------------------------/
3/--11-9-11-9------------------------------------------/
4/------------9----12-11-12-11-------------------------/
5/-----------------------------12-11-------------------/
6/-----------------------------------------------------/


    SI5            LA5                  MI5        SI5
1/-----------------------------------------------------/
2/--------------------------------------10-9-10-9------/
3/--11-9-11-9-------------------------------------9-11-/
4/------------9----12-11-12-11-------------------------/
5/-----------------------------12----------------------/
6/-----------------------------------------------------/

    RE5            LA5
1/----------------------------------------------------------------/
2/----------------------------------------------------------2/(4)-/
3/--11-9-11-9--------------------------------1-1-1---0-0----------/
4/------------9----12-11-12-11---------------2-2-2---1-1--1-------/
5/-----------------------------12-11------------------------------/
6/----------------------------------------------------------------/


RIFF

¿Quién sos?, ¿qué estas buscando en medio de la ciudad tan a oscuras?

¿Quién sos?, ¿quién sos guiando a toda la humanidad tan a oscuras?

sos mi dios sos satan

sos el bien, sos el mal

SI5                                        LA5
sos la luz que guia todo un pueblo en el desierto

SI5
sos el alma viva sos el mismo infierno

MI       MIm     MI     MIm
sos mi dios      sos satan

MI      MIm      MI      MIm       MI   MI5
sos el bien y el mal el bien y el mal



SOLO:

    SI5            LA5                  MI5        SI5
1/-----------------------------------------------------/
2/--------------------------------------10-9-10-9------/
3/--11-9-11-9-------------------------------------9-11-/
4/------------9----12-11-12-11-------------------------/
5/-----------------------------12----------------------/
6/-----------------------------------------------------/

    RE5            LA5              MI5
1/-----------------------------------------------------/
2/-----------------------------------------------------/
3/--11-9-11-9------------------------------------------/
4/------------9----12-11-12-11-------------------------/
5/-----------------------------12-11-------------------/
6/-----------------------------------------------------/


    SI5            LA5                  MI5        SI5
1/-----------------------------------------------------/
2/--------------------------------------10-9-10-9------/
3/--11-9-11-9-------------------------------------9-11-/
4/------------9----12-11-12-11-------------------------/
5/-----------------------------12----------------------/
6/-----------------------------------------------------/

    RE5            LA5
1/----------------------------------------------------------------/
2/----------------------------------------------------------2/(4)-/
3/--11-9-11-9--------------------------------1-1-1---0-0----------/
4/------------9----12-11-12-11---------------2-2-2---1-1--1-------/
5/-----------------------------12-11------------------------------/
6/----------------------------------------------------------------/


RIFF

Duerme niño, duerme ya

Duerme mi bien, duerme mi mal



-----------Aguante Jauria------------------------
Dudas o sugerencias?
mi mail es HAR_14@hotmail.com
www.facebook.com/leandror77


Video Clip de Canción de cuna


ACORDES PARA GUITARRA

PIANO UKELELE
E5
A5
E
Em
B5
D5


TOP 20: Las más tocadas de Jauría


Toca una Canción al Azar de Jauría

Acordes

Cerrar
E5
A5
E
Em
B5
D5

03.02

x

97