c ▷ RELIGIONARÉ: (Jauría) Acordes para Guitarra, Piano & Ukelele

Religionaré (Acordes)

Jauría

Full Álbum: Jauría (2010)
Subida por CLEYBERj

Compartir


Imprimir FAQ
+A
-A

Texto

Desplazamiento

Transportador

Color de Fondo

Archivos

-A
+A
Intro:

e|-------------------------------------------------------------|
b|-------------------------------------------------------------|
g|----------------------------------------------------4--------|
d|--5--2-5--2-2-4--5-4-2-------2-4-5---2-4-5----------4--------|
a|-----------------------6--7--------7-------6--------2--------|
E|----------------------------------------------5-3-2---5-3-2--|

  Riff 1        Riff 2         Riff 3
e|-------------|-------------|-------------------------|
b|-------------|-------------|-------------------------|
g|-------------|-------------|-------------------------|
d|--2-4-5-8-2--|-------------|-------------------------|
a|-------------|-5-7-9-12-5--|-3-5-7-10-3--3-5-7-10-3--|
E|-------------|-------------|-------------------------|

 Riff 4
e|-----------|
b|-----------|
g|--------4--|
d|--------4--|
a|--------2--|
E|--5-3-2----|


(1)

Em                    C    D
Ya ni era un buen pacifista aniquilaba
       B     Em                    C  D
Violentistas desde mi fe era impulsado a
                     B
exterminar a esos malditos dominantes bastardos

(2)

C             D              B  riff 4
Que no tiene ley por el existir
B
De los seres de esta vida


Riff 1
       Romanticista
Riff 2
       Antifronterista

Riff 3

B
Un cristo subversista

Fanatico antiperialista

(1)

Buscando como ser un poco mas humano
Me veo esclavizado junto a mis hermanos
Si puedo me salvo salvense quien pueda
Eso es lo que dicen por allí afuera
Esa es la consigna de mi pobre cultura perdida

(2)

Que no se despierta a un nuevo fin
Para comenzar la vida



Riff 1
       Romanticista
Riff 2
       Antifronterista

Riff 3

B
Un cristo subversista

Fanatico antiperialista


Riff 1
Religionare  shaonilista
Riff 2
Religionare krishnamuetisista
Riff 3
Religionare

B
Travestis evangelistas
Fanaticos ecologistas


Riff 1
Religionare antifascista
Riff 2
Religionare antifronterista
Riff 3
Religionarè

B
Escuchen gobernantes sadistas
Servidumbre ignorantistas


Video Clip de Religionaré


ACORDES PARA GUITARRA

PIANO UKELELE
Em
C
D
B


TOP 20: Las más tocadas de Jauría


Toca una Canción al Azar de Jauría

Acordes

Cerrar
Em
C
D
B

21.00

x

78