c ▷ SHANGRI LA: (Jauría) Acordes para Guitarra, Piano & Ukelele

Shangri La (Acordes)

Jauría

Full Álbum: Jauría (2010)
Subida por Angeles

Compartir


Imprimir FAQ
+A
-A

Texto

Desplazamiento

Transportador

Color de Fondo

Archivos

-A
+A
Intro:



e|-3-3-3-5-5----------------------------------------------------------
B|-3-3-3-5-5--7--7-7-7-7-----------------------------10-12-12h10-10-10
G|-----------------------9-9-7-7-6-4-----------6-7-9------------------
D|--------------------------------------------------------------------
A|--------------------------------------------------------------------
E|------------------------------------3-3-5-5s7-----------------------

---------|
--10-10--|
---------|
---------|
---------|
---------|

S: Slide




Bm     A            G
Al escuchar esta canción aún no tenía letra,
Bm          A              G
dijiste: es como que habla de volar.
Bm         E
Y habla de volar!
   G               A      Bm
De volar muy lejos ya de aquí…

e|------------------------------------------------------------------|
B|-7--7-7-7-7-----------------------------10-12-12h10-10-10--10-10--|
G|------------9-9-7-7-6-4-----------6-7-9---------------------------|
D|------------------------------------------------------------------|
A|------------------------------------------------------------------|
E|------------------------3-3-5-5s7---------------------------------|


Bm          A               G
Entrando a “shangri-la” con la ilusión entre mis brazos,
Bm      A           G
 desesperada por soltarse ya
Bm        E         G           A         Bm
a improvisar sus primeros pasos frente al mar…


Riff:

e|------------------|
b|-8-7-5---5-7-5----|
g|-------7-------7--|
d|------------------|
a|------------------|
E|------------------|





D     A       G      Riff
Te gustan los barcos,
D     A       G       Riff
te gustan los pájaros,
Bm      G                A
cada instante es magia y novedad.
Bm     G              A                     E
Y así fue ese tiempo, día a día, una y otra vez.
                       Bm
Naturalmente, niña y mujer…





Solo:

e|--------------------------------------------------------------------
B|--------------------------------------------------------------7-7-7-
G|7-6-4-6-4-----4------------------------------------3a-4-5b-4--7-7-7-
D|----------7-4---7-5-4-5h4-5h4-5h4-2--------------2------------------
A|------------------------------------5-2--2-2-4-5--------------------
E|--------------------------------------------------------------------

----------------------------------------------| h=Ligado
---------------12--12--14--14--15----12--15---| b=Estira
-9b-7-9-7-6-4--16b-16b-18b-18b-19b---16b-19b--| a=Armónico
----------------------------------------------|
----------------------------------------------|
----------------------------------------------|

D     A       G       Riff
Te gustan los perros,
D      A      G       Riff
te gustan los árboles,
Bm   G           A
el mejor romance que viví.
Bm     G         A                     E
Cuando te abrazo día a día, una y otra vez
                       Bm  A G           Bm A G
cierro mis ojos y sigo ahí,    con vos ahí…


Video Clip de Shangri La


ACORDES PARA GUITARRA

PIANO UKELELE
Bm
A
G
E
D


TOP 20: Las más tocadas de Jauría


Toca una Canción al Azar de Jauría

Acordes

Cerrar
Bm
A
G
E
D

11.01

x

100