c ▷ SIGUE: (Jauría) Acordes para Guitarra, Piano & Ukelele

Compartir


Imprimir FAQ
+A
-A

Texto

Desplazamiento

Transportador

Color de Fondo

Archivos

-A
+A
(1)

C                                  A
Cuando el cansancio y el llanto te ganen
C                             A
Y no sepas de donde sacar mas fuerzas
Dm                    C
Cuando tu voluntad se sienta quebrada
A
Y tu vos no sea escuchada
F
Te den la espalda y no halles respuesta

       Riff1
Sigue!

(1)

Cuando la suerte y los sueños se alejen
Cuando la ilusion y la esperanza se pierdan
Y se haga imposible encontrar la salida
Y se apoyan las piedras del camino
Y los palos en la rueda

       Riff1
Sigue!


(2)

Riff 2
Si los que eran amigos,hoy son desconocidos
                       Riff3
Se enredaron y cayeron en su propia red

                                              X2
(2)

Si en los que ayer confiaste hoy te llevan
Por delante son peces de boca grande
Sin anzuelo por morder
                Riff1
Entonces sigue!

CORTE: F

  Riff 1
e|--------------------------------------------------------|
b|--------------------------------------------------------|
g|-8-7-0-5-5-5--8-7-0-5-5-5--8-7-0-10-10-10--8-7-0-5-5-5--|
d|--------------------------------------------------------|
a|--------------------------------------------------------|
E|--------------------------------------------------------|


 Riff 2           Riff 3
e|----------------|------------|
b|----------------|------------|
g|----------------|------------|
d|-7-7-7-5-7-7-7--|-3-3-3-7-5--|
a|-7-7-7-5-7-7-7--|-3-3-3-7-5--|
E|-5-5-5-3-5-5-5--|-1-1-1-5-3--|


Video Clip de Sigue


ACORDES PARA GUITARRA

PIANO UKELELE
C
A
Dm
F


TOP 20: Las más tocadas de Jauría


Toca una Canción al Azar de Jauría

Acordes

Cerrar
C
A
Dm
F

16.16

x

68