Freedom Reigns (Acordes)

Jesús Culture

Subida por grillo2020

Compartir


Imprimir FAQ
+A
-A

Texto

Desplazamiento

Transportador

Color de Fondo

Archivos

-A
+A
Jesus Culture - Freedom Reigns



Repeat: E - C#m - B - A(2)


          E
Where the spirit of the Lord is
          C#m
There is freedom
          B
Where the spirit of the Lord is
          A
There is freedom


E
Lift Your eyes to heaven
         C#m
There is freedom
B
Lift Your eyes to heaven
         A
There is freedom


E
Freedom reigns in this place
C#m
Showers of mercy and grace
B
Falling on every face
         A
There is freedom


          E
If You're tired and thirsty
          C#m
There is freedom
          B
If You're tired and thirsty
          A
There is freedom


E
Give Your all to Jesus
         C#m
Give him all, there is freedom
B
Give Your all to Jesus
         A
There is freedom


E
Freedom reigns in this place
C#m
Showers of mercy and grace
B
Falling on every face
         A
There is freedom


[Ending TAB]
e||-12-12-12------------------|----------------------------|
B||----------12-12-12-9--9----|--9--9--9--------9--9--9----|
G||o--------------------------|-----------11-11------------|
D||o--------------------------|----------------------------|
A||---------------------------|----------------------------|
E||---------------------------|----------------------------|


e|--12-12-12------------------|----------------------------|
B|-----------12-12-12-9--9----|--9--9--9--------9--9--9----|
G|----------------------------|-----------11-11------------|
D|----------------------------|----------------------------|
A|----------------------------|----------------------------|
E|----------------------------|----------------------------|


e|--11-11-11----------9--9----|----------------------------|
B|-----------12-12-12---------|--9--9--9--------9--9--9----|
G|----------------------------|-----------11-11------------|
D|----------------------------|----------------------------|
A|----------------------------|----------------------------|
E|----------------------------|----------------------------|


e|--9--9--9-------------------|--9--9--9------------------||
B|-----------9--9--9--9--9----|-----------10-10-10-10-10--||
G|----------------------------|--------------------------o||
D|----------------------------|--------------------------o||
A|----------------------------|---------------------------||
E|----------------------------|---------------------------||

HERRAMIENTAS ACORDESWEB:


LETRA DE LA CANCIÓN:

Ver la letra sola (sin acordes)

OTRAS VERSIONES DE LA MISMA CANCIÓN:

Ver. 2 Ver. 3 Ver. 4 Ver. 5 Ver. 6

DESCARGAR PDF / IMPRIMIR CANCIÓN



ACORDES PARA GUITARRA

PIANO UKELELE
E
C#m
B
A


TOP 20: Las más tocadas de Jesús Culture


Acordes

Cerrar
E
C#m
B
A

03.17


98