Are You Gonna Be My Girl

Jet

Acordes

Subida por Sissywonga


Más Versiones
Ver. 2 Ver. 3

Cambiar Cifrado
Americano Latino

Cambiar Tonalidad
-1 +1

Partir Pantalla Imprimir FAQ

+A
-A


Ver solo la LETRA
Are You Gonna Be My Girl
Jet
tabbed by Ryan

This is all pretty rough, but its a good starting point...


[Intro]

Little riff in intro - or at least a riff that sounds vaguely like it :)

e|-------------------------|
B|-------------------------|
G|------5-7^-7-5-----------|
D|----7-5-7^-7-5-7---------|
A|----7----------7---------|
E|-------------------------| then start banging out an A barre chord....


[Verse]

N.C.
I said 1 2 3, tell ya had to come with me
                                                    A
coz ya look so fine and i really wanna make ya mine
N.C.                                                    A
I said ya look so fine and I really wanna make ya mine
N.C.
I said 4 5 6, cmon and get your kicks
                                                  A
now ya dont need money when ya look like that do ya honey?


[Interlude]

e|-------------------------|
B|-------------------------|
G|------5-7^-7-5-----------|
D|----7-5-7^-7-5-7---------|
A|----7----------7---------|
E|-------------------------| 


[Verse]


[Bridge]

    D    D    D
e|---------------------------|
B|--7----7----7-------5---8--|
G|--7----7----7-------5---7--|
D|--7----7----7-------5---5--|
A|--5----5----5-------5---5--|
E|---------------------------|

Big black boots
Long brown hair
She so sweet with her
get back stare


[Chorus]

A
Well I could see
C
You home with me
D                                 A
But you were with another man yeah
A                         C
I know we aint got much to say
D                          A
Before I let you get away
 D D D    FF*

I said are you gonna be my girl?

(Play F* as X 8 10 10 10 8)

And that all there is to it.. ya have all the parts, its just a case of repeating
it over again and then jammin in A.


************************************

| ^ Bend

************************************

ACORDES PARA GUITARRA

PIANO UKELELE
A
D
C
F


Las más tocadas de Jet

A
D
C
F