The Middle
Jimmy Eat World
Acordes

Subida por 5Intrepid


Más Versiones
Ver. 2 Ver. 3 Ver. 4 Ver. 5 Ver. 6

Cambiar Cifrado
Americano Latino

Cambiar Tonalidad
-1 +1

Partir Pantalla Imprimir FAQ

+A
-A
this is the best tab no one can do it better hope you guys like it write me if 
you can to [email protected]

Standard Tuning


[Bass Intro]

e|------------------|
B|------------------|
G|------------------|
D|------------------|
A|--9-5-9-7-4-5-4-5-|
E|------------------|


[Verse]

     D  A  G  D 
e|---2-----3--2--|
B|---3--2--3--3--|
G|---2--2-----2--|
D|------2--------| Palm Muted
A|---------2-----|
E|---------3-----|


D                             A
hey, don't write yourself off yet 
                          G                           D
it's only in your head you feel left out or looked down on 


[Chorus]

        D
it just takes some time 
                                A 
little girl, you're in the middle of the ride 
G                         
everything everything will be just fine 
D
everything everything will be all right 

  
[Solo]

e|---------------------------------------------------------------------------|
B|---------------------------------------------------------------------------|
G|---------------------------------------------------------------------------|
D|--11h12p11-9h11p9-7h9p7-4h5p4p0-2-0----------------------------------------|
A|------------------------------------4-5-4-5/7-5-4-5-4-5-4h5p4--------------|
E|---------------------------------------------------------------------------|

e|---------------------------------------------------------------------------------------------|
B|---------------------------------------------------------------------------------------------|
G|---------------------------------------------------------------------------------------------|
D|--1-1h12p11-9h11p9-7h9p7-4h5p4p0-2-0---------------------------------------------------------|
A|-------------------------------------4-5-4-5-5-5-5-7-7-7-7-9-9-9-9-1-0-1-0-1-0/12-1-0-9-1-0--|
E|---------------------------------------------------------------------------------------------|

e|---------------------------------------------------------------------------|
B|---------------------------------------------------------------------------|
G|---------------------------------------------------------------19-18-16-14-|
D|-------------------------12-0-12-12/14-0-14/16-0-16-16/17-16-17------------|
A|-9-10-10/12-10-9-9h10p9----------------------------------------------------|
E|-----------------------12--------------------------------------------------|

                 very fast picking
e|---------------------------------------------------------------------------|
B|---------------------------------------------------------------------------|
G|--12-11-9-7-6-4------------------------------------------------------------|
D|---------------------------------------------------------------------------|
A|---------------------------------------------------------------------------|
E|---------------------------------------------------------------------------|

or just alternate between D and A chords twice then G  D A D

Lyrics:


[Verse 1]

hey, don't write yourself off yet 
it's only in your head you feel left out or looked down on 
just try your best 
try everything you can 
and don't you worry what they tell themselves when you're away 


[Verse 2]

hey, you know they're all the same 
you know you're doing better on your own so don't buy in 
live right now 
just be yourself 
it doesn't matter if that's good enough for someone else 


[Chorus]

it just takes some time 
little girl, you're in the middle of the ride 
everything everything will be just fine 
everything everything will be all right 


[Verse 3]

do your best 
do everything you can 
don't you worry what thier bitter hearts are going to say


************************************

| h  Hammer-on
| p  Pull-off
| /  Slide up

************************************

ACORDES PARA GUITARRA

PIANO UKELELE
D
A
G


COMENTARIOS

Aún no hay comentarios,

¡escribe el primero!

Escribe una pregunta, duda o comentario sobre esta canción, te responderemos a la brevedad.

Las más tocadas de Jimmy Eat World

Toca una Canción al Azar de Jimmy Eat World
D
A
G