Firefly (Acordes)

Jimmy Needham

Subida por caramba

Compartir


Imprimir FAQ
+A
-A

Texto

Desplazamiento

Transportador

Color de Fondo

Archivos

-A
+A
-----------------------------------------------------------------------------

     FIREFLY - Jimmy Needham
-----------------------------------------------------------------------------
Tabbed by: dare_u_2_move


Tuning: EADGBe

Intro:
e|----------------xx---x-xx---x-xx----------------------------------------|
B|----------------66---6-66---6-66----------------------------------------|
G|----------------66---6-66---6-66----------------------------------------|
D|----------------66---6-55---5-44----------------------------------------|
A|--------4h6/8---xx---x-xx---x-xx-----6h7p6-------------------4----------|
E|---4/6----------66---6-66---6-66------------9-6-9-------4--6------------|

e|--xx---x-xx---x-xx------------------------------------------------------|
B|--66---6-66---6-66------------------------------------------------------|
G|--66---6-66---6-66------------------------------------------------------|
D|--66---6-55---5-44------------------------------------------------------|
A|--xx---x-xx---x-xx-----6h7p6-------------------4------------------------|
E|--66---6-66---6-66------------9-6-9-------4--6--------------------------|

Verse:

e|--xx---x-xx---x-xx---xx-|
B|--66---6-66---6-66---66-|
G|--66---6-66---6-66---66-|
D|--66---6-55---5-44---xx-|
A|--xx---x-xx---x-xx---44-|
E|--66---6-66---6-66---xx-|x2


    D#m             G#              C#
It happened on the day you put your hand in mine 
    D#m             G#              C#
You went up to my head just like a glass of wine 
      D#m             G#            C#   A#7
Girl, you spark my attention like a firefly 
            D#m      G#     C#   (intro)
And make me happy to be   alive 

verse 
chorus
bridge:
               C#7M         Dº   D#m7
These are just simple words of   mine 
           G#                             D#m7
And though most of what I feel is hard to rhyme 
 C#m7   D#m7
Ain’t it good to know your boy gave it a try? 
    G#7  ::  C#/F  :  D#7  :  D#m7  :  C#  ::
O a try, yeaah!

intro
chorus
intro fade



| /  slide up
| \  slide down
| h  hammer-on
| p  pull-off
| ~  vibrato
| +  harmonic
| x  Mute note
=============================================================================


Video Clip de Firefly


ACORDES PARA GUITARRA

PIANO UKELELE
D#m
G#
C#
A#7
D
D#m7
C#m7
G#7
F
D#7


TOP 20: Las más tocadas de Jimmy Needham


Acordes

Cerrar
D#m
G#
C#
A#7
D
D#m7
C#m7
G#7
F
D#7

06.32

x

265