Vuco Vuco (Acordes)

João Lucas e Marcelo

Subida por Mariane397

Compartir


Imprimir FAQ
+A
-A

Texto

Desplazamiento

Transportador

Color de Fondo

Archivos

-A
+A
Intro 2x:  Bm G D A

Solo :

E|-/2-2-0---0--------2-2-0-------------2-2--0---0-2-2--2-2------|  (2x)
B|--------3-----------------3-5---------------3-------------3-5-|
G|------------4--4---------------4--4---------------------------|
D|--------------------------------------------------------------|
A|--------------------------------------------------------------|
E|--------------------------------------------------------------|

Final do Solo :

E|-------
B|-------|
G|-6-6/--|
D|-------|
A|-------|
E|-------|

        Bm
O meu olhar já te pegou
        G
Meu coração já te laçou
        D                          A
Seu rebolado não me esconde, que você já pirou
 Bm                 G                 A
Agora é a nossa vez, João Lucas e Marcelo vai mostrar como é que faz

Refrão:
           Bm
Pra traz e vuco
           G
Pra traz e vuco
           D                         A
Pra traz e vuco vuco vuco vuco vuco vuco
           Bm
Pra traz e vuco
           G
Pra traz e vuco
           D                         A
Pra traz e vuco vuco vuco vuco vuco vuco
Bm                      G
Não para, não para, não para

B|-8-7-5------|
G|-------7-7~-|

                           D
Não para não para não para não

B|-5/7-5-3-3/5-----------|
G|----------------6-4----|
D|-------------------7---|

 A
É vuco vuco até o chão

E|-7-7-7-7-5-3-3/5-3-2-2h3-2-0-|

 Bm                      G
Não para, não para, não para

E|----------7-5-7-5-------------------|
B|-3-3h5-3----------8-7---10/-10/10~~-|

                           D
Não para não para não para não
       A
É vuco vuco até o chão

Video Clip de Vuco Vuco


ACORDES PARA GUITARRA

PIANO UKELELE
Bm
G
D
A


TOP 20: Las más tocadas de João Lucas e Marcelo


Acordes

Cerrar
Bm
G
D
A

01.54

x

225