Digno Eres
Joel Ruano
Acordes

Subida por Nayade



Otras Versiones
Ver. 2

Cambiar Cifrado
Americano Latino

Cambiar Tonalidad
-1 +1

Partir Pantalla Imprimir FAQ

+A
-A
LETRA CON ACORDES
              INTRO GUITARRA

Esto es el Bajeado de el Principio

E-------------------------------------
B---------------------------------
G------------------------------------ FIGURA 1
D-------------------------3s5----7-5
A------3s5----7-5---------------------7-3
E-----------------7-3---------------------

Despues sigue eso eso como requinto

E---------------------------------------
B------3s6--5-8-5-6-5---6s8-6----------
G---------------------7----------------- FIGURA 2
D-------------------------------------
A---------------------------------------
E--------------------------------------

Aqui se repite la FIGURA 1 y despues va esto


E------------------------------------------------
B----------18-17--------18-17--------------------
G-------------------17--------17S19-17--16--19-17
D------------------------------------------------ FIGURA 3
A------------------------------------------------
E------------------------------------------------



C
Digno Eres
F
Digno Eres
C G
Digno Eres Señor

C
Recibe Gloria
F
Gloria y Honra
C G C
Gloria Honra y Poder


Se Repite todo 2 veces

G
Porque Tu has creado
C
Todas las cosas
G C
Tu las Creastes Señor
C7
Para tu gloria
F
Gloria y Honra
C G C
Gloria Honra y Poder

Alguna duda contactenme : [email protected]


ACORDES PARA GUITARRA

PIANO UKELELE
C
F
G
C7



COMENTARIOS

Aún no hay comentarios,

¡escribe el primero!

Escribe un comentario o pregunta sobre esta canción


TOP 20: Las más tocadas de Joel Ruano

Ver más

Toca una Canción al Azar de Joel Ruano
C
F
G
C7

Nuestro servidor se demoró 0.02 segundos en generar esta página. Eso fue realmente muy rápido!