Casinha Branca
Jose Augusto
Acordes

Subida por carlosaxelcanedolopez
Álbum: Fantasias ( 2004)



Otras Versiones
Ver. 2

ENTRENA TU OÍDO MUSICAL CON ESTE JUEGO. ¿QUÉ ACORDE ES?. CLIC AQUÍ PARA JUGAR

Cambiar Cifrado
Americano Latino

Cambiar Tonalidad
-1 +1

Partir Pantalla Imprimir FAQ

Ver solo la LETRA

+A
-A
Mudar para Português
LETRA CON ACORDES
         G             C     G             C
E|-------------------|-------------------|
B|--------------/13~-|-------------------|
G|--14b-14brp12------|--14b-14brp12------|
D|-------------------|--------------/14~-|
A|-------------------|-------------------|
E|-------------------|-------------------|

G C G C
E|-------------------|-------------------|
B|--------------/13~-|-------------------|
G|--14b-14brp12------|--14b-14brp12------|
D|-------------------|--------------/14~-|
A|-------------------|-------------------|
E|-------------------|-------------------|

G C G C
Eu tenho andado tão sozinho ultimamente que nem vejo em minha
G C D7
Frente nada que me dê prazer
G C G C
Sinto cada vez mais longe a felicidade vendo em minha
G C D7
Mocidade tanto sonho perecer

C D Bm Em Am
Eu queria ter na vida simplesmente um lugar de mato verde pra
D7 G G7 C D Bm
Plantar e pra colher ter uma casinha branca de varanda um
Em C D7 G D7
Quintal e uma janela para ver o sol nascer

(solo) G C G C

G C G C G
Às vezes saio a caminhar pela cidade à procura de amizades
C D7 G C G
Vou seguindo a multidão mas eu me retraio olhando em cada rosto
C G C D7
Cada um tem seu mistério seu sofrer sua ilusão

G C G C
E|-------------------|-------------------|
B|--------------/13~-|-------------------|
G|--14b-14brp12------|--14b-14brp12------|
D|-------------------|--------------/14~-|
A|-------------------|-------------------|
E|-------------------|-------------------|

G C G C
E|-------------------|-------------------|
B|--------------/13~-|-------------------|
G|--14b-14brp12------|--14b-14brp12------|
D|-------------------|--------------/14~-|
A|-------------------|-------------------|
E|-------------------|-------------------|

[Final] G C G C

ACORDES PARA GUITARRA

PIANO UKELELE
G
C
D7
D
Bm
Em
Am
G7


COMENTARIOS

Aún no hay comentarios,

¡escribe el primero!

Para hacer una pregunta o dejar un comentario sobre esta canción, debes estar LOGUEADO

Las canciones más tocadas de Jose Augusto

Toca una Canción al Azar de Jose Augusto
G
C
D7
D
Bm
Em
Am
G7

Nuestro servidor se demoró 0.07 segundos en generar esta página. Eso fue realmente muy rápido!