Transmission (Acordes)

Joy Division

Subida por lucio


Imprimir FAQ
+A
-A

Texto

Desplazamiento

Transportador

Color de Fondo

Herramientas

TAMAÑO
TONALIDAD
+A
subir tono+ (F4)
-A
bajar tono- (F2)
    
e|---------------------|-------------------|------------------|
B|---------------------|-------------------|------------------|
G|---------------------|-------------------|------------------|
D|-5s7-9-9--9-7-9-9--9-|-7-9-9--9-7-9-9----|------------------|
A|---------------------|-------------------|------------------|
E|---------------------|-----------------7s|5-7-7--7-5-7-7--7-|

e|-----------------------||---------------------||-----|
B|-----------------------||---------------------||-----|
G|-----------------------||---------------------||-----|
D|-------7s9-7-9-9-------||---------------------||-7s9-|
A|-----------------------||-----5-7-5-7-5-7-7-5-||-----|
E|5-7-7------------5-7-5-||-7-8-----------------||-----|
                           

A musica "Radio, live transmission" 2 vezes, isso ouvindo  
baixo guitarra. E de Novo:

     e s es e e s es e   e s es e e s es e  e s es e e s es  e 
e|---------------------|-------------------|-------------------|
B|---------------------|-------------------|-------------------|
G|---------------------|-------------------|-------------------|
D|-5s7-9-9--9-7-9-9--9-|-7-9-9--9-7-9-9----|---------------7s9-|
A|---------------------|-------------------|-------------------|
E|---------------------|-----------------7s|5-7-7--7-5-7-7-----|

   e s es e e s qs 
e|----------------|
B|----------------|
G|----------------|
D|-7-9-9--9-7-9-9-|
A|----------------|
E|----------------|


1º e 2º versos:

"Solo":
 
e|----------------------|-----------------|
B|----------------------|-----------------|
G|-9b10-9-9b10-9-9b10-9-|-9-7-7---7---7-9-|
D|----------------------|-------9---9-----|
A|----------------------|-----------------|
E|----------------------|-----------------|
 
e|----------------------|-----------------|
B|----------------------|-----------------|
G|-9b10-9-9b10-9-9b10-9-|-9-7-7---7---7---|
D|----------------------|-------9---9---9-|
A|----------------------|-----------------|
E|----------------------|-----------------|

e||-------------------------||-----------------------------|
B||-------------------------||-----------------------------|
G||-7---7---7---7---7-9-9-7-||-7---7---7-7-7-7-7-7-7-7-7-7-|
D||---9---9---9---9---------||---9---9---------9-9-9-9-9-9-|
A||-------------------------||-----------------------------|
E||-------------------------||-----------------------------|
  
Letra da música:

Radio, live transmission
Radio, live transmission
Listen to the silence, let it ring on
Eyes dark, relentless, fightened in the sun
We would have a fine time living in the night
Be left a blind destruction waiting for our sight, sight
We would go on as though nothing was wrong
Hide from these days to remain all alone
Staying in the same place, just staring at the tide
Touching from a distance, further all the time
Dance, dance, dance, dance, dance to the radio (4X)

Well I could call out when the going gets tough
The things that we´ve learned are no longer enough
No language, just sound is all we need now
To synchronise love to the beat of the show
And we could dance
Dance, dance, dance, dance, dance to the radio (4X)  

HERRAMIENTAS ACORDESWEB:


LETRA DE LA CANCIÓN:

Ver la letra sola (sin acordes)

OTRAS VERSIONES DE LA MISMA CANCIÓN:

Ver. 2 Ver. 3 Ver. 4 Ver. 5 Ver. 6

DESCARGAR PDF / IMPRIMIR CANCIÓN



ACORDES PARA



TOP 20: Las más tocadas de Joy Division