Mr. Owl (Acordes)

Juan Son

Subida por uwuy

Compartir


Cambiar Cifrado
Americano Latino

Cambiar Tonalidad
-1 +1
Imprimir FAQ
+A
-A

Texto

Desplazamiento

Transportador

Color de Fondo

Archivos

TONALIDAD, TAMAÑO, CIFRADO, SCROL.

Nos renovamos: Ahora puedes cambiar TODO haciendo clic en ICONO de la Guitarra () que aparece en la parte inferior de esta página.


LETRA CON ACORDES

Hola amigos....
Les traigo la tablatura de ésta canción, yo la saqué a oído y suena correcta,
y la simplifiqué para que sea fácil tocarla, tal ve ya habían otras tabs,
pero estaban mal.
Espero la mía les agrade...

e|-----8-------8------|
B|---8---8---8---8----|
G|-8-------8-------8--|   (Calculen cuántas veces se hace, creo que son 8)
D|--------------------|
A|--------------------|
E|--------------------|


e|-----8-------8------|
B|---8---8---8---8----|
G|--------------------|
D|-8-------8-------8--|
A|--------------------|
E|--------------------|

e|-----8-------8-----------------|
B|---8---8---8---8---------------|
G|-------------------------------|
D|-------------------------------|
A|-8-------8-------8-------------|
E|------------------------8--0--8|

Todo ésto se repite una vez más.


e|----2-0-2---2-0-2---2-0-2---2-0-2/3|----3-0-3---3-0-3---3-0-3---3-0-3/2|
B|-----------------------------------|-----------------------------------|
G|-----------------------------------|-----------------------------------|
D|-----------------------------------|-----------------------------------|
A|--2-------2-------2-------2--------|--3-------3-------3-------3--------|
E|-----------------------------------|-----------------------------------|


e|-----0-------0-------0-------0--|-----0-------0-------0-------0---|
B|---1---1---1---1---1---1---1---1|---1---1---1---1---1---1---1---1-|
G|--------------------------------|---------------------------------|
D|--------------------------------|---------------------------------|
A|--------------------------------|-0-------0-------3-------3-------|
E|-1-------1-------0-------0------|---------------------------------|


Video Clip de Mr. Owl


ACORDES PARA GUITARRA

PIANO UKELELE


TOP 20: Las más tocadas de Juan Son


Toca una Canción al Azar de Juan Son

Acordes

Cerrar

10.54

x

83