Breakfast In Spitalfields (Acordes)

Juan Zelada

Subida por alvaroerodriguez

Compartir


Imprimir FAQ
+A
-A

Texto

Desplazamiento

Transportador

Color de Fondo

Archivos

-A
+A
-------------------------------------------------------------------------------

                             Breakfast In Spitalfields - Juan Zelada
-------------------------------------------------------------------------------
Tabbed by: lfgtimmer
Tuning: standard


Here are the chords, you have to figure out the timing yourelf.  


[ ] means one measure

Intro & Chorus:
Do do do… 
                                   Fast bit
               F   Dm7 C   A#  F   Dm7 C  F
e|-------x/x---5---5---8---6---5--|-5---8--5-|-------------------|
B|-----(1)/x---6---6---8---6---6--|-6---8--6-|-------------------|
G|-------2/7---5---5---9---7---5--|-5---9--5-|-------------------|
D|-------3/8---7---7---10--8---7--|-7--10--7-|-------------------|
A|-------x/x---8---5---10--8---8--|-5--10--8-|-------------------|
E|-------x/x---x---x---8---6---x--|-x---8--x-|-------------------|

In the chorus the slide is replaced for this chord
    Am7
e|--x------|
B|--x------|
G|--x------|
D|--x------|
A|--7------|
E|--5------|


Verse:
Monday morning…
    
    F  [A# F]  [Dm7 C] [A# F]
e|--5---6--5----5---8---6--5------------------------------------|
B|--6---6--6----6---8---6--6------------------------------------|
G|--5---7--5----5---9---7--5------------------------------------|
D|--7---8--7----7---10--8--7------------------------------------|
A|--8---8--8----5---10--8--8------------------------------------|
E|--x---6--x----x---8---6--x------------------------------------|

Chorus:
Breakfast in Spittalfields…

Play the chords of the intro

Bridge:
And I wont have â€¦
     C   Dm7  Ebm?  C
e|---8---5----6-----8-----|
B|---8---6----6-----8-----|
G|---9---5----7-----9-----|
D|---10--7----8-----10----|
A|---10--5----6-----10----|
E|---8---x----x-----8-----|

End the bridge with a few down strokes with this chord
    A#
e|--6------|
B|--6------|
G|--7------|
D|--8------|
A|--8------|
E|--6------|

Chorus & outro:
Play the chords of the chorus

Video Clip de Breakfast In Spitalfields


ACORDES PARA GUITARRA

PIANO UKELELE
F
Dm7
C
A#
Am7
Ebm


TOP 20: Las más tocadas de Juan Zelada


Toca una Canción al Azar de Juan Zelada

Acordes

Cerrar
F
Dm7
C
A#
Am7
Ebm

05.35

x

266